Song name
# A B C D E F G H I J K L M N O P Q R S T U V W X Y Z

Shinobu - Regular Love Triangle tab

I'm Jeremiah and i figured out some of Regular Love Triangle. What i believe to be right 
one of the guitars. Probably isn't the greatest, but hopefully someone of you can 
on it from here so here it is:
Artist: Shinobu
Song: Regular Love Triangle
Album: Worstword Ho!
Year: 2006
Tuning: Standard (EADGBe)
Key: A
Myspace: http://www.myspace.com/shinobu

Intro:

|---------------------------------------|
|---------------------------------------|
|---6/2--6/2/6/2/6----6/2-----6/2/6/2/6-|
|---------------------------------------|
|-------------------5------5------------|
|-5------5------------------------------|

Verse chords: (palm muted)

|-----|
|-----|
|-----|
|---7-|
|-7-5-|
|-5---|

Pre-Chorus:

|---0-0~---------------|
|---0-0~---------------|
|---1-1--4-4-6-6-4-2-2-|
|---2-2~---------------|
|-2-2-2~---------------|
|-0-0-0~---------------|

Chorus chords:

|-5--7-|
|-5--7-|
|-4--4-|
|-7--7-|
|-7--5-|
|-5--5-|
Tap to rate this tab
 
# A B C D E F G H I J K L M N O P Q R S T U V W X Y Z