Song name
# A B C D E F G H I J K L M N O P Q R S T U V W X Y Z

Shins - One By One All Day tab

-------------------------------------------------------------------------------
			     ONE BY ONE ALL DAY - The Shins
-------------------------------------------------------------------------------
Tabbed by: A.J. Conner
Email: ajconner123@gmail.com

Tuning: Standard

  Riff 1 - Verse
e|--0------------------------------------------------------------------------|
B|----0-----0-------0----0-----0-----0-----0-----0---------------------------|
G|------1h2---2---2----2---1h2---2p1-----2-----2-----------------------------|
D|--------------4----4-----------------2-----2-------------------------------|
A|---------------------------------------------------------------------------|
E|---------------------------------------------------------------------------|

  Riff 2
e|--------------------------|--2-----3-2-----------3--------0--0-0-0--0------|
B|--------0-----------2-----|----3-------3--7-7-7--3---7-7--2--2-2-2--0------|
G|------0---0-------2---2---|------2--------7-7-7--4---7-7--2--2-2-2--1------|
D|----0-------0---2-------2-|---------------7-7-7--5---7-7--2--2-2-2--2------|
A|--------------0-----------|---------------5-5-5--5---5-5--0--0-0-0--2------|
E|--3-----------------------|----------------------3------------------0------|

Play verse again, then riff 2, the solo (tremolo picking each note):

e|---------------------------------------------------------------------------|
B|---------------------------------------------------------------------------|
G|--7--9---11---13--14--11-9--------------9-11--9----9-11--12-11-9-----------|
D|---------------------------11-9-7-9--11---------11----------------11-9-7-9-|
A|---------------------------------------------------------------------------|
E|---------------------------------------------------------------------------|

e|---------------------------------------------------------------------------|
B|---------------------------------------------------------------------------|
G|-----9-11---13--14--9--------------9-11--9----9-11--12-11-9----------------|
D|--11-------------------11-9-7-9-11---------11----------------11-9-7-9------|
A|---------------------------------------------------------------------------|
E|---------------------------------------------------------------------------|

  Play riff 2 twice more and then go into these riffs, which repeat til the end:

  Riff 3A                      Riff 3B (just sort of go into this after awhile)
e|----------------------------|--------0---0----------3---3------------------|
B|--------0------------0------|----------0--------------0--------------------|
G|------1---1--------0---0----|------1-------1------0-------0----------------|
D|----2-------2----0-------0--|----2--------------0--------------------------|
A|----------------------------|----------------------------------------------|
E|--0------------3------------|--0--------------3----------------------------|

  If you want to get fancy and play the weird thing at the end:
e|------xxx-------------xxx-----xxx--10~-------------------------------------|
B|------xxx-------------xxx-----xxx--8~--------------------------------------|
G|------xxx-------------xxx-----xxx--7~--------------------------------------|
D|--555-xxx-555-777-222-xxx-222-xxx------------------------------------------|
A|--555-xxx-555-777-222-xxx-222-xxx------------------------------------------|
E|--333-xxx-333-555-000-xxx-000-xxx------------------------------------------|

Enjoy :) Comment or email if you spot an error.


| /  slide up
| \  slide down
| h  hammer-on
| p  pull-off
| ~  vibrato
| +  harmonic
| x  Mute note
===============================================================================
Tap to rate this tab
# A B C D E F G H I J K L M N O P Q R S T U V W X Y Z