Song name
# A B C D E F G H I J K L M N O P Q R S T U V W X Y Z

Shins - Baby Boomerang tab

This is a really simple blues song. It just repeats three parts over and over and sounds 
nice once you get the hang of it.


e|--------------------|
B|--------------------|
G|--------------------|
D|--------------------| X 12
A|------2-4p2---------|
E|-0-4---------4------|


e|--------------------|
B|--------------------|
G|--------------------|
D|-------2-4p2--------| X 2
A|--0-4---------4-----|
E|--------------------|


e|--------------------|
B|--------------------|
G|--------------------|
D|--------------------| X 2
A|------2-4p2---------|
E|-0-4---------4------|


e|--------------------|
B|--------------------|
G|--------------------|
D|-------4-6p4--------|
A|--2-6---------6-----|
E|--------------------|


e|--------------------|
B|--------------------|
G|--------------------|
D|-------2-4p2--------|
A|--0-4---------4-----|
E|--------------------|


e|--------------------|
B|--------------------|
G|--------------------|
D|--------------------| X 14
A|------2-4p2---------|
E|-0-4---------4------|


e|--------------------|
B|--------------------|
G|--------------------|
D|-------2-4p2--------| X 2
A|--0-4---------4-----|
E|--------------------|


e|--------------------|
B|--------------------|
G|--------------------|
D|--------------------| X 2
A|------2-4p2---------|
E|-0-4---------4------|


e|--------------------|
B|--------------------|
G|--------------------|
D|-------4-6p4--------|
A|--2-6---------6-----|
E|--------------------|


e|--------------------|
B|--------------------|
G|--------------------|
D|-------2-4p2--------|
A|--0-4---------4-----|
E|--------------------|


e|--------------------|
B|--------------------|
G|--------------------|
D|--------------------| X 10
A|------2-4p2---------|
E|-0-4---------4------|


e|--------------------|
B|--------------------|
G|--------------------|
D|-------2-4p2--------|  X2
A|--0-4---------4-----|
E|--------------------|


e|--------------------|
B|--------------------|
G|--------------------|
D|--------------------| X 2
A|------2-4p2---------|
E|-0-4---------4------|


e|--------------------|
B|--------------------|
G|--------------------|
D|-------4-6p4--------|
A|--2-6---------6-----|
E|--------------------|


e|--------------------|
B|--------------------|
G|--------------------|
D|-------2-4p2--------|
A|--0-4---------4-----|
E|--------------------|


e|--------------------|
B|--------------------|
G|--------------------|
D|--------------------| X 10
A|------2-4p2---------|
E|-0-4---------4------|


e|--------------------|
B|--------------------|
G|--------------------|
D|-------2-4p2--------| X 2
A|--0-4---------4-----|
E|--------------------|


e|--------------------|
B|--------------------|
G|--------------------|
D|--------------------| X 2
A|------2-4p2---------|
E|-0-4---------4------|


e|--------------------|
B|--------------------|
G|--------------------|
D|-------4-6p4--------|
A|--2-6---------6-----|
E|--------------------|


e|--------------------|
B|--------------------|
G|--------------------|
D|-------2-4p2--------|
A|--0-4---------4-----|
E|--------------------|


e|--------------------|
B|--------------------|
G|--------------------|
D|--------------------| X 2
A|------2-4p2---------|
E|-0-4---------4------|


e|--------------------|
B|--------------------|
G|--------------------|
D|-------2-4p2--------| X 2
A|--0-4---------4-----|
E|--------------------|


e|--------------------|
B|--------------------|
G|--------------------|
D|--------------------| X 2
A|------2-4p2---------|
E|-0-4---------4------|


e|--------------------|
B|--------------------|
G|--------------------|
D|-------4-6p4--------|
A|--2-6---------6-----|
E|--------------------|


e|--------------------|
B|--------------------|
G|--------------------|
D|-------2-4p2--------|
A|--0-4---------4-----|
E|--------------------|


e|--------------------|
B|--------------------|
G|--------------------|
D|--------------------|
A|------2-4p2---------|
E|-0-4----------------|


e|--------------------|
B|--------------------|
G|--------------------|
D|--------------------|
A|--2-3-6-7-----------|
E|--------------------|
Tap to rate this tab
# A B C D E F G H I J K L M N O P Q R S T U V W X Y Z