Song name
# A B C D E F G H I J K L M N O P Q R S T U V W X Y Z

Shins - Bait And Switch tab

-------------------------------------------------------------------------------
                             Bait and Switch Solo - The Shins
-------------------------------------------------------------------------------
Tabbed by: dnigh1251
E-mail: N/A

Tuning: Standard

e|----s7-----s7-----7---------5-5-5-5------7-7-------7---9-------5-5-5-5------|
B|---------------------------------------------7----7---------------------9-9-|
G|----------------------------------------------------------------------------|
D|----------------------------------------------------------------------------|
A|----------------------------------------------------------------------------|
E|----------------------------------------------------------------------------|

e|----------------------------------------------------------------------------|
B|--5---4-4-----4-5------------s4-4-------------------------------------------|
G|----------4--4-----4-4-2-2-2-------4----------------------------------------|
D|--------------------------------------4------7-----7-7-7-7-6-6--------------|
A|---------------------------------------------------------------7-6---6------|
E|-----------------------------------------------------------------------7----|

e|-----------------------------------s2--s5--------5-5-7----s2--s5------5-5-7-|
B|----------------------------------------------------------------------------|
G|-------------------------------------4----9----9------------4----9---9------|
D|------------------6-6-7-7---9-----------------------------------------------|
A|--6-7----7----7-7-----------------------------------------------------------|
E|----------------------------------------------------------------------------|

************************************

s means slide up to the note following the "s"

************************************
Tap to rate this tab
# A B C D E F G H I J K L M N O P Q R S T U V W X Y Z