Song name
# A B C D E F G H I J K L M N O P Q R S T U V W X Y Z

Shins - Spilt Needles tab

Tabbed by Paul Martin

e --------------------------|
B --------------------------|
G ----2-0-------------------|
D -0----------3-0-----------|
A ----------1-------------1-|
E --------------------------|

e --------------------------|
B --------------------------|
G --------------0-------2---|
D ------0---3---------------|
A ----1---1-----------------|
E -3------------------------|
Tap to rate this tab
# A B C D E F G H I J K L M N O P Q R S T U V W X Y Z