Guitaretab - guitar tabs
Song name
# A B C D E F G H I J K L M N O P Q R S T U V W X Y Z

Shins - Those To Come tab

----------------------------------------------------------------------------
			     THOSE TO COME - The Shins
----------------------------------------------------------------------------
Tabbed by: getfree

Tuning: standard

This song is dead easy. Have fun.

in this tab, the symbol ~ will mean let it ring instead of vibrato.

Riff A:
e|--------------------------|
B|----------0~~~~~----------|
G|-----7-------7------------|
D|---7---7------------------|
A|-5~~----------------------|
E|--------------------------|
Play until "makin' tea in your underwear you went..."

Riff B:
"...out in the yard to find"
e|--------------------------|
B|--------------------------|
G|---------0~~~~------------|
D|-----7-----7--------------|
A|---7---7------------------|
E|-5~~----------------------|
Play 6 times and on the 7th and 8th play:

e|--------------------------|
B|---------0~~~~------------|
G|---------0~~~~------------|
D|-----7-----7--------------|
A|---7---7------------------|
E|-5~~----------------------|

Then that is repeated for the second verse until "they are cold, still, waiting in the 
to..."
[ Tab from: http://www.guitaretab.com/s/shins/46858.html ]
Riff C:
"...form, feel..."
e|-------------------------------------------------------------------------|
B|---------8~~~~-----------------------------------------------------------|
G|-----9-------------------------------------------------------------------|
D|---9---9-----------------------------------------------------------------|
A|-7~~---------------------------------------------------------------------|
E|-------------------------------------------------------------------------|
which is played 5 times.

Then there's the solo, which i think might be on keyboard but i tabbed it anyway. Riff A 
in the background.

Solo:
e|--14-------12--10------10--------------10--------------------------------|
B|-------------------10-----12-------10-----12------10---------------------|
G|------------------------------------------------------9-11---------------|
D|-------------------------------------------------------------------------|
A|-------------------------------------------------------------------------|
E|-------------------------------------------------------------------------|
Play that twice, then:


e|-9---12------9-----------9---10--9---------------------------------------|
B|-----------------10-----------------12-10--------------------------------|
G|-------------------------------------------------------------------------|
D|-------------------------------------------------------------------------|
A|-------------------------------------------------------------------------|
E|-------------------------------------------------------------------------|
Play that twice and then the last note is:

e|-14~~~~~~~~~~~--------|

After that it's basically same as before, listen to the song to figure out placements of parts.

That's it!

w00t first tab...
Related for Those To Come tab
×
Those To Come