Song name
# A B C D E F G H I J K L M N O P Q R S T U V W X Y Z

Shins - Sleeping Lessons tab

Key is E major

Intro, and repeated for a bit of first verse.
E------------------------------------------------------|
B------------------------------------------------------|
G------------------------------------------------------|
D--------------1-----------------------1---------------|
A--------2--4----4---2------------2-4----4-2-----------|
E--0---4----------------4--0---4-------------4---------|

Then go up a string:
------------------------------------------------------|
------------------------------------------------------|
---------------1-----------------------1--------------|
---------2--4----4--2------------2--4-----4--2--------|
---0--4----------------4---0--4-----------------4-----|
------------------------------------------------------|

then the chorus:
----------------------------------------------------|
----------------------------------------------------|
-------------4--------------------------------------|x4
-------4--6----6--4---------------------------------|
--2--6---------------6------------------------------|
----------------------------------------------------|


---------------------------------------------------|
---------------------------------------------------|
------------------1--------------------------------|x4
-----------2-4--------4----2-----------------------|
---0--4------------------------4-------------------|
---------------------------------------------------|

Then back to  verse.

When the guitar comes in at the end, then the chords are just simple powerchords
----------------------------------------------------------|
----------------------------------------------------------|
---9------------------------------------------------------|
---9-------------7----------5-----------------------------|
---7-------------7----------5-----------------------------|
-----------------5----------7-----------------------------|
   E5            A5         B5
Tap to rate this tab
 
# A B C D E F G H I J K L M N O P Q R S T U V W X Y Z