Song name
# A B C D E F G H I J K L M N O P Q R S T U V W X Y Z

Shins - A Comet Appears tab

-------------------------------------------------------------------------------
			      A COMET APPEARS - The Shins
-------------------------------------------------------------------------------
Tabbed by:redg7
Email: redg7777@hotmail.com

Tuning: standard

Capo 2nd fret

You might prefer listening to the song instead of reading this stuff but anyway...

VERSE
   Am      G       F       C          Am      G       C       C
e|----------------1--------------0---------------------------0------|
B|-1------0---------------0h1-3-------------0--------1--------------|
G|---2-------0-------2---------0-------2--------0-------0-------0---|
D|-----2-------0-------3-----------------2--------0-------2-------2-|
A|-0------------------------3--------0-----------------3------------|
E|----------3------1---------------------------3---------------3----|

   Am       G       F       C       F       F       G
e|----------------1-------------0-1---------------------------------|
B|1-------0---------------0h1-3-----------1--------0------0---------|
G|---2-------0-------2----------------2-------2-------0-------------|
D|-----2-------0-------3---------------3--------3-------0-----------|
A|--0-----------------------3---------------3----------------0--2---|
E|----------3------1----------------1----------------3--------------|

    Am      G       F       C         Am       G       C       C
e|----------------1--------------0-------------------0--------------|
B|-1------0---------------0h1-3-------------0----------------1------|
G|---2-------0-------2---------0-------2--------0-------0-------0---|
D|-----2-------0-------3-----------------2--------0-------2-------2-|
A|-0------------------------3--------0-----------------3------------|
E|----------3------1---------------------------3---------------3----|

    Am     G        F       C
e|----------------1--------------|
B|-1------0---------------0h1-3--|
G|---2-------0-------2-----------|
D|-----2-------0-------3---------|
A|-0------------------------3----|
E|----------3------1-------------|

    G       C         G        C        G       C       F      G
e|--------------------------0-----------------0-------1-------------------------------|
B|-0-------1--------0-----------------0-----------------------0-----0------0----0-----|
G|----0--------0-------0--------0--------0-------0-------2-------0-----0-----0-----0--|
D|------0--------2-------0---------2-------0-------2-------3------0-----0-----0-----0-|
A|-----------3----------------3-----------------3-------------------------------------|
E|-3------------------3-----------------3---------------1-------3-----3-----3-----3---|


CHORUS
    F     F     C    C       F    F     C      G
e|------1-----------0-----------1--------------------|
B|-1---------0-1------------1---------0-1---1-0---0--|
G|---2----2------0-----0-----2-----2-----0------0----|
D|----3----3------2-----2-----3-----3-----2------0---|
A|-------3-----3------------------3-----3------------|
E|-1------------------3-----1-----------------3------|

    F     F     C     C      F    F     C      G
e|------1-----------0-----------1------------------------------------|
B|-1---------0-1------------1---------0-1---1-0---0-----0------0-----|
G|---2----2------0-----0-----2-----2-----0------0----0-----0------0--|
D|----3----3------2-----2-----3-----3-----2------0----0-----0------0-|
A|-------3-----3------------------3-----3----------------------------|
E|-1------------------3-----1-----------------3-----3-----3------3---|

    Asus4
e|-------------------------|
B|-3----3-----3-----3------|
G|---2-----2-----2-----2---|
D|----2-----2-----2-----2--|
A|-0------0-----0-----0----|
E|-------------------------|


| /  slide up
| \  slide down
| h  hammer-on
| p  pull-off
| ~  vibrato
| +  harmonic
| x  Mute note
===============================================================================
Tap to rate this tab
# A B C D E F G H I J K L M N O P Q R S T U V W X Y Z