Song name
# A B C D E F G H I J K L M N O P Q R S T U V W X Y Z

Shinsekai Gakkyoku Zatsugidan - Cutting Edge tab

Part 1
|---------------------------|
|---------------------------|
|-------5-3-5-7~------------|
|---------------------------|  x3
|-7-X8-----------7-X8--7-X8-|
|-5-X6-----------5-X6--5-X6-|

|-------------------------|
|-------------------------|
|-------5-3-5-7~----------|
|-------------------------|
|-7-X8-----------7-8-9-10-|
|-5-X6-----------5-6-7--8-|

Part 2
|-----------------|
|-----------------|
|-----------------|
|-----------------|
|-7777-X8-9999-X8-|
|-5555-X6-7777-X6-|

Part 3
|---------------------------------------------------------------|
|---------------------------------------------------------------|
|---------------------------------------------------------------|
|---------------------------------------------------------------|
|---------------------------------------------------------------|
|-000-00--000-00--000-00--000-00-XXX-XX--XXX-XX--XXX-XX--XXX-XX-|

Part 4 (During Guitar Solo)
|--------------------|
|--------------------|
|--------------------|
|--------------------| X2
|-2-2--2-2--0-0--0-0-|
|-0-0--0-0--0-0--0-0-|

|--------------------------------|
|--------------------------------|
|--------------------------------|
|--------------------------------|
|-2-2--2-2--5-3-2-0--2-2--2-2--7-|
|-0-0--0-0--3-1-0-0--0-0--0-0--5-|


Guitar Solo
|--------14-15(17)15-14-15~--14h15-12~-|
|-/15-17-------------------------------|
|--------------------------------------|
|--------------------------------------|
|--------------------------------------|
|--------------------------------------|

|--------14-15(17)15-14-18(19)~--17h18-15~-|
|-/15-17-----------------------------------|
|------------------------------------------|
|------------------------------------------|
|------------------------------------------|
|------------------------------------------|

|--------14-15(17)15-14-15~-14~-12~-10~-10/12~-|
|-/15-17---------------------------------------|
|----------------------------------------------|
|----------------------------------------------|
|----------------------------------------------|
|----------------------------------------------|

|-12/14h15--14~---18(19)18-17~------14\-|
|---------------------------------------|
|---------------------------------------|
|---------------------------------------|
|---------------------------------------|
|---------------------------------------|

Shinsekai No Official Page:
 
http://vgmdb.net/artist/1076
Tap to rate this tab
 
# A B C D E F G H I J K L M N O P Q R S T U V W X Y Z