Song name
# A B C D E F G H I J K L M N O P Q R S T U V W X Y Z

Shinsekai Gakkyoku Zatsugidan - Asian Triple Alliance tab

Intro

|----------------------------------------|
|----------------------------------------|
|----------------------------------------|
|-7-10--6/7-10--6/7-10--6----------------|
|-7-10--6/7-10--6/7-10--6--7-5-4---------|
|-5--8--4/5--8--4/5--8--4--------5-4-2-4-|


|------------------------------------------|
|------------------------------------------|
|------------------------------------------|
|-7-10--6/7-10--6/7-10--6------------------|
|-7-10--6/7-10--6/7-10--6--7-5-4-----------|
|-5--8--4/5--8--4/5--8--4--------5-4-2-1-0-|

First Solo x2
|--------------------------------15(15)-14~-|
|-------13-15/17~----15-15~--17-------------|
|-14-16-----------14------------------------|
|-------------------------------------------|
|-------------------------------------------|
|-------------------------------------------|

|---------------------------------------|
|-------13-15/17~----15-15----13--------|
|-14-16-----------14-------12----12/14~-|
|---------------------------------------|
|---------------------------------------|
|---------------------------------------|


Before the Second Solo
|---------------|
|---------------|
|---------------|
|---------------|
|---------------|
|-0-5-0-7-0-8-0-|


Second Solo
|----------------15~-14~--------------------------------------------------|
|-15/17-17-17-17---------15-15/17-17-17-17-------15-----15-17-15----------|
|------------------------------------------14-16-----16----------16-14----|
|----------------------------------------------------------------------17-|
|-------------------------------------------------------------------------|
|-------------------------------------------------------------------------|

|----------------15~-14~--------------------------------------|
|-15/17-17-17-17---------15-15/17-17-17-17--------------15-17-|
|------------------------------------------14-16-17--14-------|
|-------------------------------------------------------------|
|-------------------------------------------------------------|
|-------------------------------------------------------------|

|----------------15~-14~--------------------------------------------------|
|-15/17-17-17-17---------15-15/17-17-17-17-------15-----15-17-15----------|
|------------------------------------------14-16-----16----------16-14----|
|----------------------------------------------------------------------17-|
|-------------------------------------------------------------------------|
|-------------------------------------------------------------------------|

|----------------15~-14~--------------------------------------16-16(17)~-|
|-15/17-17-17-17---------15-15/17-17-17-17--------------15-17------------|
|------------------------------------------14-16-17--14------------------|
|------------------------------------------------------------------------|
|------------------------------------------------------------------------|
|------------------------------------------------------------------------|
Tap to rate this tab
# A B C D E F G H I J K L M N O P Q R S T U V W X Y Z