Song name
# A B C D E F G H I J K L M N O P Q R S T U V W X Y Z

Shinsekai Gakkyoku Zatsugidan - Masquerade tab

Intro
|-------------------|
|-------------------|
|-------------------|
|-------------------|
|-7---7/5---7---0h2-|
|-0---0-----0---0---|

Guitar Solo
|--------------------------------------------------------------------|
|-------------------------------------------------14-15--12-12-10-12-|
|----15/16--15-13-------13--------------15/16--15--------------------|
|-14--------------15-16----12--12-13-14------------------------------|
|--------------------------------------------------------------------|
|--------------------------------------------------------------------|

|--------------------------------------------------------|
|--------------------------------------------------------|
|----15/16--15-13-------13-------------------------------|
|-14--------------15-16----12--12-15-17--15--14-14-13-14-|
|--------------------------------------------------------|
|--------------------------------------------------------|

|--------------------------------------------------------------------|
|-------------------------------------------------14-15--12-12-10-12-|
|----15/16--15-13-------13--------------15/16--15--------------------|
|-14--------------15-16----12--12-13-14------------------------------|
|--------------------------------------------------------------------|
|--------------------------------------------------------------------|

|----------------------------------------------------------|
|----------------------------------------------------------|
|----15/16--15-13-------13--------------1------------------|
|-14--------------15-16----12--12-13-14--12--17--15--13-14-|
|----------------------------------------------------------|
|----------------------------------------------------------|
Tap to rate this tab
 
# A B C D E F G H I J K L M N O P Q R S T U V W X Y Z