Song name
# A B C D E F G H I J K L M N O P Q R S T U V W X Y Z

Shiny Toy Guns - Ricochet tab

This is my first tab, so yeah... here goes =P

Keyboard Intro

|-----------|-------------------------------|
|-----------|-------------------------------|
|-----------|-------------------------------|
|-----------|-------------------------------|
|-----------|-------------------------------|
|--10-8-----|--10-8-12-10----10-8-12-10-8---|

Chorus (Guitar comes in)

|----------------------------------|-------------------------------|
|----------------------------------|-------------------------------|
|----------------------------------|-------------------------------|
|-12-10-14-12-10-10-10-10-10-10-10-|-12-10-14-12-12-12-12-12-12-12-|
|-12-10-14-12-10-10-10-10-10-10-10-|-12-10-14-12-12-12-12-12-12-12-|
|-10-8--12-10-8--8--8--8--8--8--8--|-10-8--12-10-10-10-10-10-10-10-|

Fill#1

|--------|
|--------|
|--------|
|--2-----|
|--2-----|
|--0-----|
 Pm*


Verse

|-----------------|----------------|
|-----------------|----------------|
|-----------------|----------------|
|-12-10-14-12-10--|--12-10-14-12---|
|-----------------|----------------|
|-10-8--12-10-8---|--10-8--12-10---|

Fill#2 (before chorus)

|--------|
|--------|
|--22#---|
|--------|
|--------|
|--------|

Chorus (Play until end)

|----------------------------------|-------------------------------|
|----------------------------------|-------------------------------|
|----------------------------------|-------------------------------|
|-12-10-14-12-10-10-10-10-10-10-10-|-12-10-14-12-12-12-12-12-12-12-|
|-12-10-14-12-10-10-10-10-10-10-10-|-12-10-14-12-12-12-12-12-12-12-|
|-10-8--12-10-8--8--8--8--8--8--8--|-10-8--12-10-10-10-10-10-10-10-|
Tap to rate this tab
# A B C D E F G H I J K L M N O P Q R S T U V W X Y Z