Song name
# A B C D E F G H I J K L M N O P Q R S T U V W X Y Z

Shiny Toy Guns - It Became A Lie On You tab

----------------------------------------------------------------------------
             It Became A Lie On You - Shiny Toy Guns
----------------------------------------------------------------------------
Tabbed by: Lash364
Email: Daftpunker94@aol.com

Tuning: DADGBe
 (It Feels Like)
e|-------------------------------------------------------------|
B|-------------------------------------------------------------|
G|-------------------------------------------------------------|
D|-10-----5-----2-----4-----5-------12-----10-----5-----2------|
A|-10(x5)-5(x2)-2(x6)-4(x2)-5(x13)--12(x3)-10(x6)-5(x2)-2(x8)--|
E|-10-----5-----2-----4-----5-------12-----10-----5-----2------|
                      (Bring on the poison...)
e|-------------------------------------------------------------|
B|-------------------------------------------------------------|
G|-------------------------------------------------------------|
D|-12------10-----9------7-----5p7-7-----9-----7p9-9-----5-----|
A|-12(x11)-10(x2)-9(x2)--7(x4)-5p7-7(x3)-9(x4)-7p9-9(x3)-5(x12)|
E|-12------10-----9------7-----5p7-7-----9-----7p9-9-----5-----|

e|-----------------------------------------------|
B|-----------------------------------------------|
G|-----------------------------------------------|
D|-5------12-----10-----5-----2-----4-----5------|
A|-5(x12)-12(x3)-10(x6)-5(x2)-2(x6)-4(x3)-5(x1)--|
E|-5------12-----10-----5-----2-----4-----5------|
 
(THEN LET ME GO!)
e|----------------------------------------|
B|----------------------------------------|
G|----------------------------------------|
D|-10-----5-----2-----4-----5-----7-4-----|
A|-10(x5)-5(x2)-2(x6)-4(x2)-5(x8)-7-4(x4)-|
E|-10-----5-----2-----4-----5-----7-4-----|

e|---------------------------------------------|
B|---------------------------------------------|
G|---------------------------------------------|
D|-10-----5-----2-----4-----5-----7-4-----5-7--|
A|-10(x5)-5(x2)-2(x6)-4(x2)-5(x8)-7-4(x6)-5-7--|
E|-10-----5-----2-----4-----5-----7-4-----5-7--|

e|----------------------------------------------|
B|----------------------------------------------|
G|----------------------------------------------|
D|-10-----5-----2-----4-----5-----7-8-4-----5-7-|
A|-10(x5)-5(x2)-2(x6)-4(x2)-5(x8)-7-8-4(x7)-5-7-|
E|-10-----5-----2-----4-----5-----7-8-4-----5-7-|

e|---------------------------------|
B|---------------------------------|
G|---------------------------------|
D|-10-----5-----2-----4-----5-4-2--| Shocking the evidence lands,
A|-10(x5)-5(x2)-2(x6)-4(x8)-5-4-2--|            On This
E|-10-----5-----2-----4-----5-4-2--|              Holiday....



| /  slide up
| \  slide down
| h  hammer-on
| p  pull-off
| ~  vibrato
| +  harmonic
| x  Mute note
============================================================================
Tap to rate this tab
# A B C D E F G H I J K L M N O P Q R S T U V W X Y Z