Song name
# A B C D E F G H I J K L M N O P Q R S T U V W X Y Z

Shiny Toy Guns - When Did This Storm Begin tab

Help us improve GuitareTab! Take a short survey!
-------------------------------------------------------------------------------
			     When Did This Storm Begin? - Shiny Toy Guns
-------------------------------------------------------------------------------
Tabbed by: tucker3
Email:tuckerboy13@hotmail.com

Tuning: Dropped C

yes you read right, its in drop c (i think).. anyways.. its pretty easy, my timing might 
be right but if you listen to the song you'll get it
comments/corrections: email tuckerboy13@hotmail.com


the intro:

d|---------------------------------------------------------------------------|
A|---------------------------------------------------------------------------|
F|---------------------------------------------------------------------------|
C|---------------------------------------------------------------------------|
G|-2(play alot)-2x16--3x16---------------------------------------------------|
C|--------------------------5x16---------------------------------------------|

then theres the intro chorus then sisely sings:

d|---------------------------------------------------------------------------|
A|---------------------------------------------------------------------------|
F|--------------7------------------------------------------------------------|
C|-2-2--5--0-0--7--7-7-------------------------------------------------------|
G|-2-2--5--0-0--5--7-7-------------------------------------------------------|
C|-2-2--5--0-0-----7-7-------------------------------------------------------|

then i from what i hear the chorus is:

d|---------------------------------------------------------------------------|
A|---------------------------------------------------------------------------|
F|---------------------------------------------------------------------------|
C|-2-----4-4-4-4--5-----5-----7-7-7-7----------------------------------------|
G|-2-----4-4-4-4--5-----5-----7-7-7-7--9-------------------------------------|
C|-2x13--4-4-4-4--5x15--5x13--7-7-7-7--9x15----------------------------------|

sisely sings some more, then:

d|---------------------------------------------------------------------------|
A|---------------------------------------------------------------------------|
F|---------------------------------------------------------------------------|
C|-0--2-2--5--0-0------------------------------------------------------------|
G|-0--2-2--5--0-0------------------------------------------------------------|
C|-0--2-2--5--0-0------------------------------------------------------------|

the chous again:

d|---------------------------------------------------------------------------|
A|---------------------------------------------------------------------------|
F|---------------------------------------------------------------------------|
C|-2-----4-4-4-4--5-----5-----7-7-7-7----------------------------------------|
G|-2-----4-4-4-4--5-----5-----7-7-7-7--9-------------------------------------|
C|-2x13--4-4-4-4--5x15--5x13--7-7-7-7--9x15----------------------------------|

and thats pretty much it except a little something after the last chorus which i don't 
but i do know that it ends with

d|---------------------------------------------------------------------------|
A|---------------------------------------------------------------------------|
F|---------------------------------------------------------------------------|
C|-9--7--5-------------------------------------------------------------------|
G|-9--7--5-------------------------------------------------------------------|
C|-9--7--5-------------------------------------------------------------------|

well there you go folks.
as i said it's probably not right but it's close


| /  slide up
| \  slide down
| h  hammer-on
| p  pull-off
| ~  vibrato
| +  harmonic
| x  Mute note
===============================================================================
Related for When Did This Storm Begin tab