Song name
# A B C D E F G H I J K L M N O P Q R S T U V W X Y Z

Shiny Toy Guns - Frozen Oceans tab

-------------------------------------------------------------------------------
			     FROZEN OCEANS - Shiny Toy Guns
-------------------------------------------------------------------------------
Tabbed by: tucker3
Email: tuckerboy13@hotmail.com

allo lads, me again with yet another STG tab. This one was easier to figure out than the
i have put up, except i had some trouble with the guitar bridge after the second
As usual, timings might not be right but its close.

Tuning: Drop D (e B G D A D)

anyway there isnt much guitar in this song, verses are mainly synth/keyboards

Pre - Chorus (the only part where chad sings in this)
e|---------------------------------------------------------------------------|
B|---------------------------------------------------------------------------|
G|---------------------------------------------------------------------------|
D|-5-------1-----------------------------------------------------------------|
A|-5-------1-------1~--------------------------------------------------------|
D|-5-(x8)--1-(x8)------------------------------------------------------------|

Chorus
e|---------------------------------------------------------------------------|
B|---------------------------------------------------------------------------|
G|---------------------------------------------------------------------------|
D|--5-------1-------3-------3------------------------------------------------|
A|--3-(x8)--1-------1-(x8)--3------------------------------------------------|
D|----------1-(x8)----------3-(x8)-------------------------------------------|

Pre Chorus again, Chorus again then the little bridge bit. this might not be right but 
damn close

e|---------------------------------------------------------------------------|
B|---------------------------------------------------------------------------|
G|---------------------------------------------------------------------------|
D|-0-1-3-0-1-3-0-1-3-0-1-3-0-1-3-5-6-5-3---6-5-3---6-5-3---3-5-----------5---|
A|---------------------------------------3-------3-------3-----6-5-3-5-6-----|
D|---------------------------------------------------------------------------|


e|---------------------------------------------------------------------------|
B|---------------------------------------------------------------------------|
G|---------------------------------------------------------------------------|
D|-------5-------5-------5---------0-1-3-0-1-3-0-1-3-0-1-3-0-1-3-5-6-5-3-----|
A|-3-5-6---3-5-6---3-5-6---3-6-5-3---------------------------------------3---|
D|---------------------------------------------------------------------------|

e|--------------------------------------------------------------------------------------|
B|--------------------------------------------------------------------------------------|
G|--------------------------------------------------------------------------------------|
D|-6-5-3----6-5---6-5---6-5-------------------------------------------------------------|
A|-------3------3-----3-----------------------------------------------------------------|
D|--------------------------------------------------------------------------------------|

thats basically the bridge, except it plays little variants that you will pick up if you
along to the song.

Then Chorus times 2 and you're done ;) finito :)
enjoy, email me if you have and comments/corrections

| /  slide up
| \  slide down
| h  hammer-on
| p  pull-off
| ~  vibrato
| +  harmonic
| x  Mute note
===============================================================================
Tap to rate this tab
 
# A B C D E F G H I J K L M N O P Q R S T U V W X Y Z