Song name
# A B C D E F G H I J K L M N O P Q R S T U V W X Y Z

Shiny Toy Guns - Ghost Town tab

 GHOST TOWN - SHINY TOY GUNS
GENERAL CHORDS

 e|-----------------------------------------------|
 b|-----------------------------------------------| (x2)
 g|-------4/6-------------------------------------|
 D|-------4/6---6---------------------------------|
 A|-------2/4---6--(x8)---------------------------|
 E|-------------4---------------------------------|


Then, After the tab before
  e|-----------------------------------------------|
 b|------------------------------------------------| (x2)
 g|-------4/6---4-------3--------------------------|
 D|-------4/6---4-(x8)--3-(x5)---------------------|
 A|-------2/4---2-------1--------------------------|
 E|------------------------------------------------|

TABBED BY JAIME VAZQUEZ VARGAS, AN OLD FRIEND FROM PRIMARY
LOVE YOU JAMES (IT'S A JOKE)
Tap to rate this tab
 
# A B C D E F G H I J K L M N O P Q R S T U V W X Y Z