Song name
# A B C D E F G H I J K L M N O P Q R S T U V W X Y Z

Shiny Toy Guns - Burning For You tab

Distorted Guitar w/ Phaser and Echo

Intro
e|----------3------------------|
B|-5-3-5---------5-3-5---------|
G|--------5------------5-------|
D|-----------------------------|
A|-----------------------------|
E|-----------------------------| X5

e|-----------------------------|
B|---5-3-5---3~----------------|
G|---------5-------------------|
D|-----------------------------|
A|-----------------------------|
E|-----------------------------|

e|-5-5--7-7--1-1----3-3--------|
B|-----------------------------|
G|-----------------------------|
D|-----------------------------|
A|-----------------------------|
E|-----------------------------| X3
Home in the valley...

e|-----------------------------|
B|-----------------------------|
G|-----------------------------|
D|-7----5----3----5----7-------|
A|-7----5----3----5----7-------|
E|-5----3----1----3----5-------|
Burn out the day...

e|-----------------------------|
B|-----------------------------|
G|-----------------------------|
D|-7x7x5x5x3x3xx55-------------|
A|-7x7x5x5x3x3xx55-------------|
E|-5x5x3x3x1x1xx33-------------| X7
I'm burning I'm burning I'm burning...

e|----------3------------------|
B|-5-3-5---------5-3-5---------|
G|--------5------------5-------|
D|-----------------------------|
A|-----------------------------|
E|-----------------------------| X5

e|-----------------------------|
B|---5-3-5---3~----------------|
G|---------5-------------------|
D|-----------------------------|
A|-----------------------------|
E|-----------------------------|

e|-5-5--7-7--1-1----3-3--------|
B|-----------------------------|
G|-----------------------------|
D|-----------------------------|
A|-----------------------------|
E|-----------------------------| X3
Time is the essence...

e|-----------------------------|
B|-----------------------------|
G|-----------------------------|
D|-7----5----3----5----7-------|
A|-7----5----3----5----7-------|
E|-5----3----1----3----5-------|
Burn out the day...

e|-----------------------------|
B|-----------------------------|
G|-----------------------------|
D|-7x7x5x5x3x3xx55-------------|
A|-7x7x5x5x3x3xx55-------------|
E|-5x5x3x3x1x1xx33-------------| X7
I'm burning I'm burning I'm burning...

(I cant figure that part out but i got the base notes
play these when you hear the bass drum)
e|-----------------------------|
B|-5----7----------------------|
G|-----------7----5------------|
D|-----------------------------|
A|-----------------------------|
E|-----------------------------| X4
Bridge

e|-----------------------------|
B|-----------------------------|
G|-----------------------------|
D|-7----5----3----5----7-------|
A|-7----5----3----5----7-------|
E|-5----3----1----3----5-------| X4
Burn out the day...

|------------------------------|
B|-----------------------------|
G|-----------------------------|
D|-7x7x5x5x3x3xx55-------------|
A|-7x7x5x5x3x3xx55-------------|
E|-5x5x3x3x1x1xx33-------------| Keep going 'till it finishes

This is my first tab. I hope it's good
Comment if there's something wrong or you get the bridge.
Tap to rate this tab
 
# A B C D E F G H I J K L M N O P Q R S T U V W X Y Z