Song name
# A B C D E F G H I J K L M N O P Q R S T U V W X Y Z

Shiny Toy Guns - Poison tab

-----------------------------------------------------------------------------
			     Poison - Shiny Toy Guns
-----------------------------------------------------------------------------
Tabbed by: Lash T. Typhoon (Lash364)
Email: lashtyphoon@aol.com

Tuning: Drop D

Distortion & Delay.
Delay Settings (from a Boss ME-6) - Time : 42. , Feedback : 10 , Level 10.

I watched Chad's hands live and tabbed by ear.
I didn't count the timing for each note. Lets test your timing. =]
Inject...

e|---------------------------------------------------------------|
B|---------------------------------------------------------------|
G|---------------------------------------------------------------|
D|---------------------------------------------------------------| 
A|-5-3-1-3-(5)---------1-0-3-----------------3-7-5-------3-7-(5)-|
D|----------0--------0-------5-7-8-7-0------------------------0--|
  ^Mid Verse ^       ^chorus                 ^chorus end
  & Pre-chorus                            (x3 on 2nd chorus)

 2nd and 3rd             Sisely singing
"from this world..."     "Hooooome..."
e|-------------------------------------------|
B|-------------------------------------------|
G|-------------------------------------------|
D|-------------------------------------------|
A|-1-3-----1-3------------3-7-5-(x3)--3-7----|
D|----0--------Carry-over-----------------0--|
   ^2nd^  ^3rd^----->>>>> ^
               ^Keep strumming

...And Poison...
e|--------------------------------------------|
B|--------------------------------------------|
G|--------------------------------------------|
D|--------------------------------------------|
A|-------------------------3-7-5-(x3)--3-7----|
D|-5-7-8-7-0---5-7-8-7-0-------------------0--|



11/19&20/09
AC/LT
Tap to rate this tab
# A B C D E F G H I J K L M N O P Q R S T U V W X Y Z