Song name
# A B C D E F G H I J K L M N O P Q R S T U V W X Y Z

Shiny Toy Guns - Money For That tab

Money For That - Shiny Toy Guns

Tuning: Half-Step Drop D (Db Ab Db Gb Bb eb)

*NOTE*: For Guitar 2, I added some octaves that may sound neat whilst playing the tune. 
It also sounds a tiny bit better if on Guitar 1 there are no upstrokes, all down.


Intro -

Guitar 1 (only for Intro)
|------------------------------------|
|------------------------------------|
|------------------------------------|
|-7-----7p0-0-----0h2-2----4----2----|
|-7-x16-7p0-0-x14-0h2-2-x3-4-x8-2-x4-|
|-7-----7p0-0-----0h2-2----4----2----|


Verse 1 -

Guitar 1
|------------------------------------------------------|
|------------------------------------------------------|
|------------------------------------------------------|
|-7-----7p0-0-----0h2-2----4----7----9----4----2----7~-|
|-7-x16-7p0-0-x14-0h2-2-x3-4-x8-7-x4-9-x4-4-x4-2-x8-7~-|
|-7-----7p0-0-----0h2-2----4----7----9----4----2----7~-|
  .

Guitar 2 (figure out when to play)
|------------------------------------|
|-4--7-6~---4--7-6~------------------|
|------------------------------------|
|------------------------------------|
|------------------------------------|
|------------------------------------|


Chorus -

Guitar 1
|-------------------------------|
|-------------------------------|
|-------------------------------|
|-7-------2-------4-------0-----|  x2
|-7-x16---2-x16---4-x16---0-x16-|
|-7-------2-------4-------0-----|

Guitar 2
|-------------------------------|
|-------------------------------|
|-14------13------11------7-----|
|-x--x16--x--x16--x--x16--x-x16-|
|-12------11------9-------5-----|
|-------------------------------|
|
|-------------------------------|
|-------------------------------|
|-14------13------11------19----|
|-x--x16--x--x16--x--x16--x-x16-|
|-12------11------9-------17----|
|-------------------------------|

Verse 2 - 

Guitar 1
|------------------------------------------------------|
|------------------------------------------------------|
|------------------------------------------------------|
|-7-----7p0-0-----0h2-2----4----7----9----4----2----7~-|
|-7-x16-7p0-0-x14-0h2-2-x3-4-x8-7-x4-9-x4-4-x4-2-x8-7~-|  x2
|-7-----7p0-0-----0h2-2----4----7----9----4----2----7~-|
  .

Guitar 2 (figure out when to play)
|------------------------------------|
|-4--7-6~---4--7-6~------(2nd Time)--|
|---------------------------7*-------|
|---------------------------7*-------|   x2
|---------------------------7*-------|
|------------------------------------|

Guitar 3 (overdubbed with effect)
|//////////18t-|  (t = tremelo)
|--------------|
|--------------|
|--------------|
|--------------|
|--------------|


Chorus -

Guitar 1
|-------------------------------|
|-------------------------------|
|-------------------------------|
|-7-------2-------4-------0-----|  x2
|-7-x16---2-x16---4-x16---0-x16-|
|-7-------2-------4-------0-----|

Guitar 2
|-------------------------------|
|-------------------------------|
|-14------13------11------7-----|
|-x--x16--x--x16--x--x16--x-x16-|
|-12------11------9-------5-----|
|-------------------------------|
|
|-------------------------------|
|-------------------------------|
|-14------13------11------19----|
|-x--x16--x--x16--x--x16--x--x16|
|-12------11------9-------17----|
|-------------------------------|

Post-Chorus/Bridge - (Guitar 2 only)

Guitar 2 (Clean with reverb)
|-------------------------------|
|-------------------------------|
|-14------13------6-------9-----|
|-x--x16--x--x16--x-x16---x-x16-|
|-12------11------4-------7-----|
|-------------------------------|
|
|-------------------------------|
|-------------------------------|
|-11------14------16------21----|
|-x--x16--x--x16--x--x16--x--x16|
|-9-------12------14------19----|
|-------------------------------|

Post-Bridge/Pre-Chrous - 

Guitar 1
|-------------------------------|
|-------------------------------|
|-------------------------------|
|-7-------2-------4-------0-----|  x2
|-7-x16---2-x16---4-x16---0-x16-|
|-7-------2-------4-------0-----|

Guitar 2
|-------------------------------|
|-------------------------------|
|-18------16------14------11----|
|-x--x16--x--x16--x--x16--x--x16|
|-16------14------12------9-----|
|-------------------------------|
|
|-------------------------------|
|-------------------------------|
|-18------16------14------19----|
|-x--x16--x--x16--x--x16--x--x16|
|-16------14------12------17----|
|-------------------------------|

Chorus - 

Guitar 1
|-------------------------------|
|-------------------------------|
|-------------------------------|
|-7-------2-------4-------0-----|  x2
|-7-x16---2-x16---4-x16---0-x16-|
|-7-------2-------4-------0-----|

Guitar 2
|-------------------------------|
|-------------------------------|
|-14------13------11------7-----|
|-x--x16--x--x16--x--x16--x-x16-|
|-12------11------9-------5-----|
|-------------------------------|
|
|-------------------------------|
|-------------------------------|
|-14------13------11------19----|
|-x--x16--x--x16--x--x16--x--x16|
|-12------11------9-------17----|
|-------------------------------|


End - 

Guitar 1
|-------|
|-------|
|-------|
|-0~~~--|
|-0~~~--|
|-0~~~--|

Guitar 2
|-------|
|-------|
|-21~~~-|
|-x-----|
|-19~~~-|
|-------|
Tap to rate this tab
# A B C D E F G H I J K L M N O P Q R S T U V W X Y Z