Guitaretab - guitar tabs
Song name
# A B C D E F G H I J K L M N O P Q R S T U V W X Y Z

Shiny Toy Guns - Chemistry Of A Car Crash tab

Intro/Verse:
e|------------------|
B|----5------3------|
G|--5---5-5----5-5--|
D|------------------| 12 times
A|------------------|
E|------------------|

Verse:
Don't tear us apart again...
e|-------------------------------|
B|-------------------------------|
G|--10--------14-------9---------|
D|---x-(16x)---x-(16x)--x-(32x)--|  Twice 
A|---8--------12-------7---------|
E|-------------------------------|

Then
e|---------------------------|
B|---------------------------|
G|--10-------9-------5-------|
D|---x-(6x)--x-(6x)--x-(4x)--|
A|---8-------7-------3-------|
E|---------------------------|

Chorus:
e|---------------------------|
B|---------------------------|
G|---------------------------|
D|--3--------5-------7-------|
A|--3-(16x)--5-(8x)--7-(8x)--|
E|--1--------3-------5-------|

e|---------------------------|
B|---------------------------|
G|---------------------------|
D|--3--------7-------5-------|
A|--3-(16x)--7-(8x)--5-(8x)--|
E|--1--------5-------3-------|

Intro/Verse 8 times

Then
e|------------------------------------------------------------|
B|------------------------------------------------------------|
G|----10-----9-----9-----7------9-------7-------9-------7-----|
D|--7----7-7---7-7---7-7---7-7-----7-7----7-10----10-10---10--|
A|------------------------------------------------------------|
E|------------------------------------------------------------|

e|---------------------------|
B|---------------------------|
G|----10-----9-----9------7--|
D|--7----7-7---7-7----7-7----|
A|---------------------------|
E|---------------------------|

Chorus
[ Tab from: http://www.guitaretab.com/s/shiny-toy-guns/85633.html ]
Bridge:
Stay, this time...
e|---------------------------|
B|---------------------------|
G|-----------5---------------|
D|--3--------5-(8x)--5-------|  Twice
A|--3-(16x)--3-------5-(8x)--|
E|--1----------------3-------|

e|------|
B|------|
G|------|
D|--3~--|
A|--3~--|
E|--1~--|

Solo:
e|-----12-------10-------12-------10--------12-------10--------12--|
B|--13----13-13----13-13----13-13-----13-13----13-13----13-10------|
G|-----------------------------------------------------------------|
D|-----------------------------------------------------------------|
A|-----------------------------------------------------------------|
E|-----------------------------------------------------------------|

e|--------10-----|
B|--13-13----13--|
G|---------------|
D|---------------|  
A|---------------|
E|---------------|

e|-----12-------10-------12--------10-------12-------10-------10-----|
B|--13----13-13----13-13-----13-13----13-10----13-13----13-------12--|
G|---------------------------------------------------------12--------|
D|-------------------------------------------------------------------|
A|-------------------------------------------------------------------|
E|-------------------------------------------------------------------|

e|-------------|
B|--12--13-12--|
G|-------------|
D|-------------|
A|-------------|
E|-------------|

Other guitar
e|------------------------------------------------------|
B|----5-----3------5-----3------5------3------3---------|
G|--5---5-5----5-5---5-5----5-----5-5-----5-0--4-4-5-4--|
D|----------------------------7-------------------------|
A|------------------------------------------------------|
E|------------------------------------------------------|

Chorus
Bridge
End on
e|------|
B|------|
G|------|
D|--3~--|
A|--3~--|
E|--1~--|

And that's it everybody.
I hope you like it.
Any questions/comments email me at heyskateboarder@aol.com
Related for Chemistry Of A Car Crash tab