Song name
# A B C D E F G H I J K L M N O P Q R S T U V W X Y Z

Shiny Toy Guns - Le Disko tab

Tabbed by: Buba1986
Email: buba1986@hotmail.co.uk

This is my first tab so be kind :o)  Hope you enjoy


Tuning: Standard

Intro

e|---------------------------------------------------------------------------|
B|---------------------------------------------------------------------------|
G|---9---Hit-this-repeatedly-------------------------------------------------|
D|---------------------------------------------------------------------------|
A|---------------------------------------------------------------------------|
E|---------------------------------------------------------------------------|

Verse pt 1

e|-----------------------------------------------------------------------------|
B|--------------------------------------------------------------5^-------------|
G|-----------------------------------------------------------------------------|
D|---------------------------[Keyboard plays]----------------------------------|
A|-----------------------------------------------------------------------------|
E|--3-3---2-2^---0-0-0-0-------------------------------------------------------|

Verse pt 2

e|---------------------------------------------------------------------------|
B|------------------------------------------------------16^\-----------------|
G|---------------------------------------------------------------------------|
D|--------------------2------------------------------------------------------|
A|---------------------------------------------------------------------------|
E|--3-3---2-2^---0-0----0----X--X--3-3---2-2^---0-0-0------------------------|

e|------------------------------------------------------------------------------|
B|------------------------------------------------------------------------------|
G|----------------------------------------------------9-9-9-9^------------------|
D|--------------------2---------------------------------------------------------|
A|------------------------------------------------------------------------------|
E|--3-3---2-2^---0-0----0----X--X--3-3---2-2^---0-0-----------------------------|

Chorus

e|---------------------------------------------------------------------------|
B|---------------------------------------------------------------------------|
G|---------------------------------------------------------------------------|
D|-------------------2--------or-----------------------2---------------------|
A|------------------------------------5-5---4-4^-----------------------------|
E|--3-3---2-2^---0-0----0-------------3-3---2-2^---0-0----0------------------|

Verse 2 pt 1

e|-----------------------------------------------------------------------------|
B|----------------------------------------------------17---i think-------------|
G|----------------------------------------------------16-----------------------|
D|---------------------------[Keyboard plays]----------------------------------|
A|-----------------------------------------------------------------------------|
E|--3-3---2-2^---0-0-----------------------------------------------------------|

Verse 2 pt 2

e|------------------------------------------------------------------------------|
B|-----------------------------------------------------------11-----------------|
G|------------------------------------------------------------------------------|
D|--------------------2---------------------------------------------------------|
A|------------------------------------------------------------------------------|
E|--3-3---2-2^---0-0----0----X--X--3-3---2-2^---0-0-0---------------------------|

e|---------------------------------------------------------------------------|
B|---------------------------------------------------------------------------|
G|----------------------------------------------------9-9-9-9^---------------|
D|---------------------------------------------------------------------------|
A|---------------------------------------------------------------------------|
E|--3-3---2-2^---0-0-0-0----X--X--3-3---2-2^---0-0---------------------------|

Chorus

e|---------------------------------------------------------------------------|
B|---------------------------------------------------------------------------|
G|---------------------------------------------------------------------------|
D|-------------------2--------or-----------------------2---------------------|
A|------------------------------------5-5---4-4^-----------------------------|
E|--3-3---2-2^---0-0----0-------------3-3---2-2^---0-0----0------------------|

Havn't Figured out the slow bridge bit yet


                                            Harmonic
e|--------------------------------------------12+------------------------------|
B|--------------------------------------------12+------------------------------|
G|--------------------------------------------12+------------------------------|
D|--Bridge ends with-----------------------------------------------------------|
A|-----------------------------------------------------------------------------|
E|-----------------------------------------------------------------------------|

Then this picky bit x3

e|---------------------------------------------------------------------------|
B|---20--19--------20--19----------------------------------------------------|
G|-----------16------------16--16--16--16--16--16----------------------------|
D|---------------------------------------------------------------------------|
A|---------------------------------------------------------------------------|
E|---------------------------------------------------------------------------|

e|-----------------------------------------------------------------------------|
B|---20--20--19--19------------------------------------------------------------|
G|-------------------16------play repeatedly-----------------------------------|
D|-----------------------------------------------------------------------------|
A|-----------------------------------------------------------------------------|
E|-----------------------------------------------------------------------------|

Then end on
                           Harmonic
e|---------------------------12+---------------------------------------------|
B|---------------------------------------------------------------------------|
G|----16~----------------12+-------------------------------------------------|
D|---------------------------------------------------------------------------|
A|---------------------------------------------------------------------------|
E|---------------------------------------------------------------------------|

Chorus x1


| /  slide up
| \  slide down
| h  hammer-on
| p  pull-off
| ~  vibrato
| +  harmonic
| x  Mute note
===============================================================================
Tap to rate this tab
# A B C D E F G H I J K L M N O P Q R S T U V W X Y Z