Song name
# A B C D E F G H I J K L M N O P Q R S T U V W X Y Z

Shiny Toy Guns - Starts With One tab

-------------------------------------------------------------------------------
			     Starts With One - Shiny Toy Guns
-------------------------------------------------------------------------------
Tabbed by: Buba1986
Email: buba1986@hotmail.co.uk

Tuning: Drop D

I wouldn't say its 100% perfect but its sounds good. Please rate :o)


Intro (Palm mute notes)

e|---------------------------------------------------------------------------|
B|---------------------------------------------------------------------------|
G|--11-11-11-----------------------------------------------------------------|
D|-----------11-11-11-14-14-14-9-9-9-9-9-9-9------x2-------------------------|
A|---------------------------------------------------------------------------|
D|---------------------------------------------------------------------------|

Verse

e|---------------------------------------------------------------------------|
B|---------------------------------------------------------------------------|
G|---------------------------------------------------------------------------|
D|------------------------------x4-then-play-intro-x4------------------------|
A|----x6----x12----x6----x12-------------------------------------------------|
D|--0-----4-----/7----\2----------------------------------------------------|

Chorus 1

e|---------------------------------------------------------------------------|
B|---------------------------------------------------------------------------|
G|---------------------------------------------------------------------------|
D|---------------------------------------------------------------------------|
A|--0-x16--2-x12--4-x6--7-x2---0-x16--2x12--4--------------------------------|
D|--0------2------4-----7------0------2-----4--------------------------------|

Verse

chorus 2

e|---------------------------------------------------------------------------|
B|---------------------------------------------------------------------------|
G|---------------------------------------------------------------------------|
D|---------------------------x3----------------------------------------------|
A|--0-x16--2-x12--4-x6--7-x2----0-x16--2x12--4-------------------------------|
D|--0------2------4-----7-------0------2-----4-------------------------------|

Bridge Part.1

e|---------------------------------------------------------------------------|
B|---------------------------------------------------------------------------|
G|---------------------------------------------------------------------------|
D|--11----14----7------------------------------------------------------------|
A|---------------------------------------------------------------------------|
D|---------------------------------------------------------------------------|

Part.2 (After the 2nd "It Feels Soooooo....)

e|---------------------------------------------------------------------------|
B|---------------------------------------------------------------------------|
G|----------------9^---------------------------------------------------------|
D|---------------------x2----------------------------------------------------|
A|--8x16-4x16----------------------------------------------------------------|
D|--8----4-------------------------------------------------------------------|
   p.m  p.m

Last Verse

e|---------------------------------------------------------------------------|
B|-----x6----x10-(i-think)---x18-------x6-----x25----------------------------|
G|---3----/6---------------/8------/11-----\10-------------x2----------------|
D|---------------------------------------------------------------------------|
A|---------------------------------------------------------------------------|
D|---------------------------------------------------------------------------|

e|---------------------------------------------------------------------------|
B|---------------------------------------------------------------------------|
G|--11--\10--\6--------------------------------------------------------------|
D|---------------------------------------------------------------------------|
A|---------------------------------------------------------------------------|
D|---------------------------------------------------------------------------|



| /  slide up
| \  slide down
| h  hammer-on
| p  pull-off
| ~  vibrato
| +  harmonic
Tap to rate this tab
# A B C D E F G H I J K L M N O P Q R S T U V W X Y Z