Guitaretab - guitar tabs
Song name
# A B C D E F G H I J K L M N O P Q R S T U V W X Y Z

Shiny Toy Guns - Jackie Will Save Me tab

Tuning: Standard

Tabbed by Buba1986

I have put next to most notes and chords roughly how many times you do them (Sorry, i'm 
lazy to type them all out :o) ) Enjoy anyway and please comment and rate this or any of 
other Shiny Toy Guns tabs. Thanks again


Intro (Transcribed To Guitar)

e|---------------------------------------------------------------------------|
B|---------------------------------------------------------------------------|
G|-----------x6------x32-----------------------------------------------------|
D|---x26---4-------2---------------------------------------------------------|
A|-2-------------------------------------------------------------------------|
E|---------------------------------------------------------------------------|

Verse

e|-------------------------------x6-------------------------------x6---------|
B|-----------------------------7--------------------------------5------------|
G|-x-4-x-x-4-----x-4-x-x-4------------x-4-x-x-4-----x-4-x-x-4----------------|
D|---------------------------------------------------------------------------|
A|---------------------------------------------------------------------------|
E|---------------------------------------------------------------------------|

-OR-

e|---------------------------------------------------------------------------|
B|--------------------------------x6------------------------------x6---------|
G|-----------------------------11--------------------------------9-----------|
D|-x-9-x-x-9-----x-9-x-x-9------------x-9-x-x-9-----x-9-x-x-9----------------|
A|---------------------------------------------------------------------------|
E|---------------------------------------------------------------------------|

Chorus (Transcribed To Guitar)
[ Tab from: http://www.guitaretab.com/s/shiny-toy-guns/89427.html ]
e|---------------------------------------------------------------------------|
B|-----x16----x16-----x16----------------------------------------------------|
G|--6-------4-------9--------x16---------------------------------------------|
D|--6-------4-------9--or--2-------------------------------------------------|
A|--4-------2-------7------2-------------------------------------------------|
E|-------------------------0-------------------------------------------------|

Post Chorus (Strum each chord really fast)

e|-----x16-------------------x16---------------------------------------------|
B|-15-------------x32----15---------------x16--------x16---------------------|
G|--x----------13---------x------------13--------16--------------------------|
D|-12--*PAUSE*--x--------12----*PAUSE*--x---------x--------------------------|
A|-------------11----------------------11--------14--------------------------|
E|---------------------------------------------------------------------------|

Bridge (Strum really fast)

e|-----x32------x32------x32-------------------------------------------------|
B|-14-------16-------17------------------------------------------------------|
G|--x--------x--------x------------------------------------------------------|
D|-11-------13-------14------------------------------------------------------|
A|---------------------------------------------------------------------------|
E|---------------------------------------------------------------------------|

*Order*

Intro x5
Verse x2
Chorus x2
Post chorus x1
Verse x3
Chorus x2
Post chorus x1
Bridge x2
Post chorus x1

| /  slide up
| \  slide down
| h  hammer-on
| p  pull-off
| ~  vibrato
| +  harmonic
| x  Mute note
===============================================================================
Related for Jackie Will Save Me tab
Advertisement will be closed in 10 seconds