Song name
# A B C D E F G H I J K L M N O P Q R S T U V W X Y Z

Shiny Toy Guns - Turn To Real Life tab

-------------------------------------------------------------------------------
			     Shiny Toy Guns - Turn To Real Life
-------------------------------------------------------------------------------
Tabbed by: Buba1986
Email: buba1986@hotmail.co.uk

Check out my other Shiny Toy Guns Tabs. Enjoy :o)

Tuning: Standard

Intro (Transcribed from keys to guitar) PLAY ONCE THEN COMES IN THE BASS LINE

e|---------------19--19--12--12----------------------------------------------|
B|--12--12--12---------------------------------------------------------------|
G|---------------------------------------------------------------------------|
D|---------------------------------------------------------------------------|
A|---------------------------------------------------------------------------|
E|---------------------------------------------------------------------------|

Intro (Bass Line)

e|---------------------------------------------------------------------------|
B|---------------------------------------------------------------------------|
G|---------------------------------------------------------------------------|
D|---------------------------------------------------------------------------|
A|----x18-----x18------------------------------------------------------------|
E|--7-------0----------------------------------------------------------------|

Pre-Verse + Chorus

e|---------------------------------------------------------------------------|
B|---------------------------------------------------------------------------|
G|--9-9--8-8---------9-9-8-8-------------------------------------------------|
D|------------9-9-9----------9-9-9-9-----------------------------------------|
A|------------------------------------9-9-h-11-p-9-h-11-11-11-11-------------|
E|---------------------------------------------------------------------------|

e|---------------------------------------------------------------------------|
B|---------------------------------------------------------------------------|
G|---------------------------------------------------------------------------|
D|---------------------------------------------------------------------------|
A|--9-9-h-11-p-9-h-11-11-11-11-11--------------------------------------------|
E|---------------------------------------------------------------------------|

Verse (bass line)

e|---------------------------------------------------------------------------|
B|---------------------------------------------------------------------------|
G|---------------------------------------------------------------------------|
D|---------------------------------------------------------------------------|
A|----x18----x18-------------------------------------------------------------|
E|--7------0-----------------------------------------------------------------|

Chorus

e|---------------------------------------------------------------------------|
B|---------------------------------------------------------------------------|
G|--9-9--8-8---------9-9-8-8-------------------------------------------------|
D|------------9-9-9----------9-9-9-9-----------------------------------------|
A|------------------------------------9-9-h-11-p-9-h-11-11-11-11-------------|
E|---------------------------------------------------------------------------|

e|---------------------------------------------------------------------------|
B|---------------------------------------------------------------------------|
G|---------------------------------------------------------------------------|
D|---------------------------------------------------------------------------|
A|--9-9-h-11-p-9-h-11-11-11-11-11--------------------------------------------|
E|---------------------------------------------------------------------------|

Solo

e|---------------------------------------------------------------------------|
B|--16--16--16--x-x--14--14--14--x-x--12--12--12--x-x--12--------------------|
G|--16--16--16--x-x--15--15--15--x-x--13--13--13--x-x--13--------------------|
D|---------------------------------------------------------------------------|
A|---------------------------------------------------------------------------|
E|---------------------------------------------------------------------------|

e|--14---14----14-----14--14-------------|
B|----12----11----9----------14--14--12--|
G|---------------------------------------|
D|---------------------------------------|
A|---------------------------------------|
E|---------------------------------------|

e|---------------------------------------------------------------------------|
B|--16--16--16--x-x--14--14--14--x-x--12--12--12--x-x--12--------------------|
G|--16--16--16--x-x--15--15--15--x-x--13--13--13--x-x--13--------------------|
D|---------------------------------------------------------------------------|
A|---------------------------------------------------------------------------|
E|---------------------------------------------------------------------------|


e|--14-----14-----14---------------------------------------------------------|
B|-----12-----14-----16/17/19/21\19~-----------------------------------------|
G|---------------------------------------------------------------------------|
D|---------------------------------------------------------------------------|
A|---------------------------------------------------------------------------|
E|---------------------------------------------------------------------------|


SONG ORDER

Intro     x4 (start playing bass line after first intro riff)
bass line x3
Pre Verse x2
bass line x2
Pre Verse x2
bass line x2
Chorus    x4
solo      x1
chorus    x6



| /  slide up
| \  slide down
| h  hammer-on
| p  pull-off
| ~  vibrato
| +  harmonic
| x  Mute note
Tap to rate this tab
 
# A B C D E F G H I J K L M N O P Q R S T U V W X Y Z