Song name
# A B C D E F G H I J K L M N O P Q R S T U V W X Y Z

Shipwreck - Heated tab

-------------------------------------------------------------------------------
			     HEATED - Shipwreck
-------------------------------------------------------------------------------
Tabbed by: beadhangingOne

Gtr I (D# G# C# F# A# D#)


INTRO

  Q=144
 4/4
  Gtr I
  E E E E E E E E   E E E E E E Q   E E E E E E E E   E E E E S S E S S E
|-----------------|---------------|-----------------|---------------------|
|-----------------|---------------|-----------------|---------------------|
|-----------------|---------------|-----------------|---------------------|
|-----------------|---------------|-2---------------|---------------------|
|-----------------|---------------|-2---------------|---------------------|
|-0-6-3-0-5-3-0-2-|-3-0-5-3-0-6-3-|-0-0-0-0-0-0-0-0-|-0-0-0-0-0-0-0-0-0-0-|



VERSE

  E E E Q.   Q    E E E Q.   Q    E E E Q.   Q    E E E Q.   Q
|---------------|---------------|---------------|---------------|
|---------------|---------------|---------------|---------------|
|---------------|---------------|---------------|---------------|
|---------------|---------------|---------------|---------------|
|-------4----4--|-------5----5--|-------7----7--|-------5----5--|
|-0-0-0-2----2--|-0-0-0-3----3--|-0-0-0-5----5--|-0-0-0-3----3--|


After a couple times the second guitar plays the riff below


| E E E Q.   Q    E E E Q.   Q    E E E Q.   Q    E E E Q.   Q
|---------------|---------------|---------------|---------------|
|---------------|---------------|---------------|---------------|
|---------------|---------------|---------------|---------------|
|-2s4-4-4----4--|-2s5-5-5----5--|-2s7-7-7----7--|-2s5-5-5----5--|
|---------------|---------------|---------------|---------------|
|---------------|---------------|---------------|---------------|


  W       +W         +W          +W
|---------------------------------------|
|---------------------------------------|
|---------------------------------------|
|-2-------(2)--------(2)---------(2)----|
|-2-------(2)--------(2)---------(2)----|
|-0-------(0)--------(0)---------(0)----|



BRIDGE


  Q=168
  S S S S S S S S E. E. E
|-------------------------|
|-------------------------|
|-------------------------|
|-----------------9--9--9-|
|-----------------7--7--7-|
|-0-0-0-0-0-0-0-0---------|


  S S S S S S S S  E.  E.  E   S S S S S S S S E. E. E
|----------------------------|-------------------------|
|----------------------------|-------------------------|
|----------------------------|-------------------------|
|-----------------10--10--10-|-----------------9--9--9-|
|------------------8---8---8-|-----------------7--7--7-|
|-0-0-0-0-0-0-0-0------------|-0-0-0-0-0-0-0-0---------|


  E E E E E E Q
|----------------|----|
|----------------|----|
|----------------|----|
|-2-3-2---2-3-2--|----|
|-2-3-2-3-2-3-2--|----|
|-------3--------|----|


TRANSITION RIFF

  S S E Q  E E Q    S S E Q  E  E Q    S S E Q  E E Q   E E Q  E E Q
|-----------------|------------------|----------------|---------------|
|-----------------|------------------|----------------|---------------|
|-----------------|------------------|----------------|---------------|
|-------2----4-5--|-------2----10-9--|-------2----4-5-|---5-4----7-5--|
|-------2----2-3--|-------2-----8-7--|-------2----2-3-|-0-3-2--0-5-3--|
|-0-0-0-0--0------|-0-0-0-0--0-------|-0-0-0-0--0-----|---------------|


  S S E Q  E E Q    S S E Q  E  E Q    S S E Q  E E Q
|-----------------|------------------|-----------------|
|-----------------|------------------|-----------------|
|-----------------|------------------|-----------------|
|-------2----4-5--|-------2----10-9--|-------2----4-5--|
|-------2----2-3--|-------2-----8-7--|-------2----2-3--|
|-0-0-0-0--0------|-0-0-0-0--0-------|-0-0-0-0--0------|

  E E E E E E W
|------------------|
|------------------|
|------------------|
|-5-----5-----4----|
|-3-----3-----2----|
|---0-0---0-0------|


PLAY VERSE AND INTRO AGAIN


OUTRO


  Q=110
  Q  E Q  Q.     Q  E Q  Q.    Q  E Q  Q.    E E E E E E Q
|--------------|-------------|-------------|------------------|
|--------------|-------------|-------------|------------------|
|--------------|-------------|-------------|------------------|
|--------------|-------------|-------------|------------------|
|-2----1-------|-2----0------|-2-----------|---7-5---8-5------|
|-0--0----3----|-0--0----3---|-0--0-2--3---|-0-5-3-0-6-3------|


  Q  E Q  Q.     Q  E Q  Q.     Q  E Q  Q.     E E E E E E Q
|--------------|--------------|--------------|----------------|
|--------------|--------------|--------------|----------------|
|--------------|--------------|--------------|----------------|
|------3-------|------2-------|--------------|----------------|
|-2--2-1--5----|-2--2-0--5----|-2----4--5----|---7-5---8-5----|
|-0--0----3----|-0--0----3----|-0--0-2--3----|-0-5-3-0-6-3----|



Duration Legend
---------------
W - whole; H - half; Q - quarter; E - 8th; S - 16th; T - 32nd; X - 64th; a - acciaccatura
+ - note tied to previous; . - note dotted; .. - note double dotted
Uncapitalized letters represent notes that are staccato (1/2 duration)
Irregular groupings are notated above the duration line
Duration letters will always appear directly above the note/fret number it represents the
duration for.  Duration letters with no fret number below them represent rests.  Multi-
bar rests are notated in the form Wxn, where n is the number of bars to rest for.  Low
melody durations appear below the staff

Tablature Legend
----------------
 h   - hammer-on
 p   - pull-off
 b   - bend
 pb  - pre-bend
 r   - bend release (if no number after the r, then release immediately)
 /\  - slide into or out of (from/to "nowhere")
 s   - legato slide
 S   - shift slide
 - natural harmonic
[n]  - artificial harmonic
n(n) - tapped harmonic
 ~   - vibrato
 tr  - trill
 T   - tap
 TP  - trem. picking
 PM  - palm muting
\n/  - tremolo bar dip; n = amount to dip
 \n  - tremolo bar down
 n/  - tremolo bar up
/n\  - tremolo bar inverted dip
 =   - hold bend; also acts as connecting device for hammers/pulls
 <> - volume swell (louder/softer)
 x   - on rhythm slash represents muted slash
 o   - on rhythm slash represents single note slash
Tap to rate this tab
# A B C D E F G H I J K L M N O P Q R S T U V W X Y Z