Song name
# A B C D E F G H I J K L M N O P Q R S T U V W X Y Z

Shipwreck - Squall tab

p - pull of
/ - slide
x - dead note

Intro x6
Guitar 1
eb|---------------------------------------------------|
Bb|---------------------------------------------------|
Gb|--------------------------------------------7-7-7--|
Db|-2-2-2-2-2-2-2-2-2-2-2-2--5-5-5-7-7-7-4-4-4-7-7-7--|
Ab|-2-2-2-2-2-2-2-2-2-2-2-2--5-5-5-7-7-7-4-4-4-5-5-5--|
Eb|-0-0-0-0-0-0-0-0-0-0-0-0--3-3-3-5-5-5-2-2-2--------|
Guitar 2
eb|---------------------------------------------------|
Bb|---------------------------------------------------|
Gb|-9-9-9-9-9-9-9-9-9-9-9-9--------------------7-7-7--|
Db|-x-x-x-x-x-x-x-x-x-x-x-x--5-5-5-7-7-7-4-4-4-7-7-7--|
Ab|-7-7-7-7-7-7-7-7-7-7-7-7--5-5-5-7-7-7-4-4-4-5-5-5--|
Eb|--------------------------3-3-3-5-5-5-2-2-2--------|


Verse x2
eb|--------------------------------------------|
Bb|--------------------------------------------|
Gb|--------------------------------------------|
Db|-3p2-2-2-2---3p2-2-2-2----3p2-2-2-2---------|
Ab|-3p2-2-2-2---3p2-2-2-2----3p2-2-2-2---------|
Eb|-1p0-0-0-0---1p0-0-0-0----1p0-0-0-0--5-6-3--|

eb|--------------------------------------------|
Bb|--------------------------------------------|
Gb|--------------------------------------------|
Db|-3p2-2-2-2---3p2-2-2-2----3p2-2-2-2---------|
Ab|-3p2-2-2-2---3p2-2-2-2----3p2-2-2-2----5----|
Eb|-1p0-0-0-0---1p0-0-0-0----1p--0-0-0--5---3--|


Chorus x2
eb|------------------------------------|
Bb|------------------------------------|
Gb|------------------------------------|
Db|------------------------------------|
Ab|-----------------------6-5-3--------|
Eb|-3/5--3-5-6-5-3p0-3/5--------5-3-0--|


Verse x2
eb|--------------------------------------------|
Bb|--------------------------------------------|
Gb|--------------------------------------------|
Db|-3p2-2-2-2---3p2-2-2-2----3p2-2-2-2---------|
Ab|-3p2-2-2-2---3p2-2-2-2----3p2-2-2-2---------|
Eb|-1p0-0-0-0---1p0-0-0-0----1p0-0-0-0--5-6-3--|

eb|--------------------------------------------|----|
Bb|--------------------------------------------|----|
Gb|--------------------------------------------|----|
Db|-3p2-2-2-2---3p2-2-2-2----3p2-2-2-2---------|-2--|
Ab|-3p2-2-2-2---3p2-2-2-2----3p2-2-2-2----5----|-2--|
Eb|-1p0-0-0-0---1p0-0-0-0----1p--0-0-0--5---3--|-0--|


Find Me a Reason, To Not Sink In These Waves
eb|-----------------------------------------------------|
Bb|-----------------------------------------------------|
Gb|-4-4-4-4-4-4--5-5-5-5-5-5--7-7-7-7-7-7--9-9-9-9-9-9--|
Db|-x-x-x-x-x-x--x-x-x-x-x-x--x-x-x-x-x-x--x-x-x-x-x-x--|
Ab|-2-2-2-2-2-2--3-3-3-3-3-3--5-5-5-5-5-5--7-7-7-7-7-7--|
Eb|-----------------------------------------------------|
Tap to rate this tab
# A B C D E F G H I J K L M N O P Q R S T U V W X Y Z