Song name
# A B C D E F G H I J K L M N O P Q R S T U V W X Y Z

Shipwreck - Erebos tab

p - pull off
/ - slide

Verse x2
eb|-----------------------------------------------------------------|
Bb|-----------------------------------------------------------------|
Gb|-----------------------------------------------------------------|
Db|-3p2-2--3/5-5--3p2-2--3/5-5--3p2-2--3/5-5--5-5-5-5-5--8-8-8-8-8--|
Ab|-3p2-2--3/5-5--3p2-2--3/5-5--3p2-2--3/5-5--5-5-5-5-5--8-8-8-8-8--|
Eb|-1p0-0--1/3-3--1p0-0--1/3-3--1p0-0--1/3-3--3-3-3-3-3--6-6-6-6-6--|

Chorus x4
eb|--------------------------------------------------------------------------|
Bb|--------------------------------------------------------------------------|
Gb|----------------------------------3-3-3-----------------------------------|
Db|-5-5-5-5-5-5-5-5-5-5-5-5-5-5-5-5--3-3-3--2-2-2-2-2-2-2-2-2-2-2-2-2-2-2-2--|
Ab|-5-5-5-5-5-5-5-5-5-5-5-5-5-5-5-5--1-1-1--2-2-2-2-2-2-2-2-2-2-2-2-2-2-2-2--|
Eb|-3-3-3-3-3-3-3-3-3-3-3-3-3-3-3-3---------0-0-0-0-0-0-0-0-0-0-0-0-0-0-0-0--|

Bridge x4
eb|-----------------------------------|
Bb|-----------------------------------|
Gb|-----------------------------------|
Db|-----------------------------------|
Ab|-7-7-7-7-6-6-6-6-5-5-5-5--5-5-3-3--|
Eb|-----------------------------------|

Verse x2
eb|--------------------------------------------------------|
Bb|--------------------------------------------------------|
Gb|-------------------------------------------9-9-9-9-9-9--|
Db|-3p2-2--3/5-5--3p2-2--3/5-5--3p2-2--3/5-5--9-9-9-9-9-9--|
Ab|-3p2-2--3/5-5--3p2-2--3/5-5--3p2-2--3/5-5--7-7-7-7-7-7--|
Eb|-1p0-0--1/3-3--1p0-0--1/3-3--1p0-0--1/3-3---------------|
Tap to rate this tab
 
# A B C D E F G H I J K L M N O P Q R S T U V W X Y Z