Guitaretab - guitar tabs
Song name
# A B C D E F G H I J K L M N O P Q R S T U V W X Y Z

Shit Disco - Reactor Party tab

e-------------------------------------------------|
B-------------------------------------------------|
G-------------------------------------------------|
D-------------------------------------------------|
A--12-12--12--12---12-----------------------------|
D--------------------12-12--12--12---12-----------|
[ Tab from: http://www.guitaretab.com/s/shit-disco/98614.html ]
e-------------------------------------------------|
e-------------------------------------------------|
e-------------------------------------------------|
e-------------------------------------------------|
A 10-10--10--10---10---------------------12--10---|
E-------------------10-10--10--10---10------------|

That's pretty much it for all the song :)

Peace x
Reactor Party chords by Shit Disco