Song name
# A B C D E F G H I J K L M N O P Q R S T U V W X Y Z

Shit Sandwich - Beautiful Medoly tab

----------------------------------------------------------------------------
			     beautiful medely - kyle williams
----------------------------------------------------------------------------
Tabbed by:kyle williams
Email:kylewilliams92@ymail.com

Tuning:standard

e|-------0-7--7-5--5-3--3-2--2h0-------------------------------------|
B|----------5----3----0----0-----------------0--0--0--0-0--0---------|
G|---0--4------------------------0--0--0--0---0-----0----0-----------|
D|--4------5-5--4-4--2-2--0-0-----2/----4----2-2---2-2--2-2--0h2p0-0-|
A|-7---7-------------------------3-3/--5-5------------------------3--|
E|0------------------------------------------------------------------|
play that whole thing x2

e|------0-7-7-7-7--5-5-5-5-5--3-3-3-3-1-1-1-1-1-------------------|
B|--------5-5-5-5--3-3-3-3-3--0-0-0-0-0-0-0-0-0-------------------|
G|---0-4--5-5-5-5--0-0-0-0-0--0-0-0-0-0-0-0-0-0-----x2------------|
D|--4-----5-5-5-5--4-4-4-4-4--2-2-2-2-0-0-0-0-0-------------------|
A|-7--7-----------------------------------------------------------|
E|0---------------------------------------------------------------|

e|0-0-0-0-0--0-0-0-0-0--x-x-x-x-x-x-x-x-x---------------------------|
B|2-2-2-2-2--3-3-3-3-3--x-x-x-x-x-x-x-x-x---------------------------|
G|0-0-0-0-0--0-0-0-0-0--0-0-0-0-0-0-0-0-0----------x2---------------|
D|2-2-2-2-2--4-4-4-4-4--4-4-4-4-4-4-4-4-4---------------------------|
A|3-3-3-3-3--5-5-5-5-5--7-7-7-7-7-7-7-7-7---------------------------|
E|x-x-x-x-x--0-0-0-0-0--0-0-0-0-0-0-0-0-0---------------------------|

e|--------------------------------------------------------------------------|
B|--------------------------------------------------------------------------|
G|--------------------------------------------------------------------------|
D|--------------------------------------------------------------------------|
A|--------------------------------------------------------------------------|
E|--------------------------------------------------------------------------|

The tabs are not finished but i made up this song so email me and tell me what you 
I will try to finish them some time.


************************************

| /   slide up
| \   slide down
| h   hammer-on
| p   pull-off
| ~   vibrato
| +   harmonic
| x   Mute note
| b   Bend
| pb  Pre-bend
| br  Bend release
| pbr Pre-bend release
| brb Bend release bend

************************************
Tap to rate this tab
 
# A B C D E F G H I J K L M N O P Q R S T U V W X Y Z