Guitaretab - guitar tabs
Song name
# A B C D E F G H I J K L M N O P Q R S T U V W X Y Z

Shivaree - Mexican Boyfriend tab

These are the two main riffs of Shivaree's "Mexican Boyfriend".  There are a few little
fills and such in there as well, but this is basically the song.
[ Tab from: http://www.guitaretab.com/s/shivaree/59189.html ]
  Main riff:
E |--------------------------------------||
B |---------------------6---5---3--------||
G |---------0----------------------4-----||
D |--------------2-----------------------||
A |----3---------------------------------||
E |--------------------------------------||

  Bassier riff, played occasionally:
E |--------------------------------------||
B |--------------------------------------||
G |--------------------7/9--7---5--------||
D |---------2----------------------7-----||
A |----0---------3-----------------------||
E |--------------------------------------||

That's most of the song.

Thanks.

Questions or comments: FLiPskater2525@aol.com
Related for Mexican Boyfriend tab