Song name
# A B C D E F G H I J K L M N O P Q R S T U V W X Y Z

Shivers - Epah tab

Help us improve GuitareTab! Take a short survey!
Não conseguia encontrar um tab para esta cómica música dos Shivers, então 
decidi pôr mãos à obra e fazer uma :D divirtam-se a tocar esta música tão 
cómica! xD
________________________________
e|---------------------------|  \
B|---------------------------|   \
G|-4-3-3--3-xx--7-6-6--6-xx--|    \
D|-4-3-3--3-xx--7-6-6--6-xx--|     \
A|-2-1-1--1-----5-4-4--4-----|      \
E|---------------------------| (x6)  \
                                    (x2)                                   
e|------------------|                /
B|------------------|               /
G|------------------|              /
D|---3-1-3-4-3-1-3--|             /
A|-1----------------|            /
E|------------------| (x4)      /
_______________________________/

e|---------------------------|
B|---------------------------|
G|-4-3-3--3-xx--7-6-6--6-xx--|
D|-4-3-3--3-xx--7-6-6--6-xx--|
A|-2-1-1--1-----5-4-4--4-----|
E|---------------------------| (x6)

e|--------------------------------------------|
B|--------------------------------------------|
G|-3--3-3--3-3/8-8-8\3-3-6--6-6--6-4--4-4-6---|
D|-3--3-3--3-3/8-8-8\3-3-6--6-6--6-4--4-4-6---|
A|-1--1-1--1-1/6-6-6\1-1-4--4-4--4-2--2-2-4---|
E|--------------------------------------------| (x5)

e|-----------------------------------|
B|-----------------------------------|
G|-88888888666644443333333344446666--|
D|-88888888666644443333333344446666--|
A|-66666666444422221111111122224444--|
E|-----------------------------------| (x4)

e|--------------|
B|--------------|
G|-3--3--3-3-3--|
D|-3--3--3-3-3--|
A|-1--1--1-1-1--|
E|--------------| (x2)

e|-----|
B|-----|
G|-3~--|
D|-3~--|
A|-1~--|
E|-----|

e|----------------------------------|
B|----------------------------------|
G|-3-3-3-6-6-6-6-6-8-8-8-4-4-4-4-4--|
D|-3-3-3-6-6-6-6-6-8-8-8-4-4-4-4-4--|
A|-1-1-1-4-4-4-4-4-6-6-6-2-2-2-2-2--|
E|----------------------------------| (x8)

e|--------------|
B|--------------|
G|-3--3--3-3-3--|
D|-3--3--3-3-3--|
A|-1--1--1-1-1--|
E|--------------| (x2)

e|---------------------------|
B|---------------------------|
G|-4-3-3--3-xx--7-6-6--6-xx--|
D|-4-3-3--3-xx--7-6-6--6-xx--|
A|-2-1-1--1-----5-4-4--4-----|
E|---------------------------| (x2)

e|----------|
B|----------|
G|-3/4\3-3--|
D|-3/4\3-3--|
A|-1/2\1-1--|
E|----------|

Cumpz, espero que tenham gostado
.o/

http://www.myspace.com/shiversonline
Related for Epah tab