Song name
# A B C D E F G H I J K L M N O P Q R S T U V W X Y Z

Shizuka - Redline 95 tab

-------------------------------------------------------------------------------
			     Redline 95 - Shizuka
-------------------------------------------------------------------------------

         Am                   F
And when people step out this red line 
     G                 Em
I'll never let them to go
      Am                      F 
Never laugh cause this is the dead end 
         G                      Em
Is it my end before it start to show 

         Am                   F
And when people step out this red line 
        G                   Em
Mean no other place need to go 
        Am                 F
Let the future past in the mean time 
          G                   Em
Faces the griefness here all alone 


Chorus : 
       F               G
It was you call me and told me 
        Em                  Am
Help me out and shine up my life 
G      F          G                  Am
It was u call me again tell I am without 

G      F               G
It was you call me and told me 
           Em                Am
Blur up my eyes and left me alone 
G      F               G             Am          Em
It was you told me the lies I always spoke


Solo:

e|---------------------------------------------------|
B|---------------------------------------------------|
G|---------------------------------------------------|
D|--2--4--5-----7--5--4-5-4--2--2--5--4--4-4-4--2-4--|
A|---------------------------------------------------|
E|---------------------------------------------------|

e|---------------------------------------------------|
B|---------------------------------------------------|
G|---------------------------------------4-5-4--2-4--|
D|--2--4--5-----7--5--4-5-4--2--2--5--4--------------|
A|---------------------------------------------------|
E|---------------------------------------------------|

e|---------------------------------------------------|
B|---------------------------------------------------|
G|--4--4--9--9---7--5--5---5--7--7---5--4----4-4-4---|
D|---------------------------------------------------|
A|---------------------------------------------------|
E|---------------------------------------------------|

e|---------------------------------------------------|
B|--------8-10--8-----10--12--10---12----------------|
G|--9-11-----------11--------------------------------|
D|---------------------------------------------------|
A|---------------------------------------------------|
E|---------------------------------------------------|

*I'm not too good in guitar, so if you have any comment, just send me an email

Chords by: musangblokf
Email: musangblokf@yahoo.com
Tap to rate this tab
# A B C D E F G H I J K L M N O P Q R S T U V W X Y Z