Song name
# A B C D E F G H I J K L M N O P Q R S T U V W X Y Z

Shmolts - The Grand Wizard tab

The Grand Wizard by Shmolts - www.shmolts.com 
Written by Jay Serrao/MaW

Tab by MaW - www.mawdotmaw.com

Capo 3rd Fret
Tempo 150BPM
Divided in 4 bars phrases

Intro Pt.1
|------0-------0-------3-------3-------5-------0-------2-p-0-----0-|
|--0-------0-------0-------0-------0-------0-------0---------0-----|
|----0-------0-------0-------0-------0-------0-------2---------2---|
|--------2---------------2---------------4-------------------------|
|----------------3---------------5---------------0-----------------|
|0-----------------------------------------------------------------|
Intro Pt.2
|------0-------0-------3-------3-------5-------0-------2-5-|
|--0-------0-------0-------0-------0-------0-------0-------|
|----0-------0-------0-------0-------0-------0-------2-2-5-|
|--------2---------------2---------------4-----------------|
|----------------3---------------5---------------0---------|
|0---------------------------------------------------------|

Verse (Times 5) - Hear you can, Foresee for me... 
|------0-------0-------3-------3-------5-------0-------0-------0-|
|--0-------0-------0-------0-------0-------0-------0-------0-----|
|----0-------0-------0-------0-------0-------0-------2-------2---|
|--------2---------------2---------------4---------------2-------|
|----------------3---------------5---------------0---------------| 
|0---------------------------------------------------------------|

Verse Ending - The spell left me broken... 
|------0-------0-------3-------3-------5-------0-0-| 
|--0-------0-------0-------0-------0-------0-----0-| 
|----0-------0-------0-------0-------0-------0---0-| 
|--------2---------------2---------------4-------2-| 
|----------------3---------------5---------------3-| 
|0-----------------------------------------------X-|

Chorus 1 - Tell me sir, who's side you’re on... 
|------0-------0-------0-------0-------0-------0-------0-------0-| 
|--8-------8-------7-------7-------3-------3-------3-------2-----| 
|----0-------0-------0-------0-------4-------4-------2-------2---| 
|--------9---------------7---------------5-----------------------| 
|----------------5---------------------------------------0-------| 
|0-------------------------------3---------------2---------------|

...I need to find my way...
|------0-------0-------0-------0-------0-------0-0-|
|--8-------8-------7-------7-------3-------3-----3-|
|----0-------0-------0-------0-------4-------4---2-|
|--------9---------------7---------------5-------0-|
|----------------5-------------------------------0-|
|0-------------------------------3---------------2-|

Mandolin Break Pt.1
|------0-------0-------3-------3-------5-------0-------2-p-0-----0-|
|--0-------0-------0-------0-------0-------0-------0---------0-----|
|----0-------0-------0-------0-------0-------0-------2---------2---|
|--------2---------------2---------------4-------------------------|
|----------------3---------------5---------------0-----------------|
|0-----------------------------------------------------------------|
Mandolin Break Pt.2
|------0-------0-------3-------3-------5-------0-------2-5-|
|--0-------0-------0-------0-------0-------0-------0-------|
|----0-------0-------0-------0-------0-------0-------2-2-5-|
|--------2---------------2---------------4-----------------|
|----------------3---------------5---------------0---------|
|0---------------------------------------------------------|

Verse 2 (Times 5) - Shiny swords can never be... 
|------0-------0-------3-------3-------5-------0-------0-------0-|
|--0-------0-------0-------0-------0-------0-------0-------0-----| 
|----0-------0-------0-------0-------0-------0-------2-------2---| 
|--------2---------------2---------------4---------------2-------| 
|----------------3---------------5---------------0---------------| 
|0---------------------------------------------------------------|

Verse 2 Ending - Your spell has left me broken... 
|------0-------0-------3-------3-------5-------0-0-| 
|--0-------0-------0-------0-------0-------0-----0-| 
|----0-------0-------0-------0-------0-------0---0-| 
|--------2---------------2---------------4-------2-| 
|----------------3---------------5---------------3-| 
|0-----------------------------------------------X-|

Chorus 2 - Tell me sir, who's side you're on... 
|------0-------0-------0-------0-------0-------0-------0-------0-| 
|--8-------8-------7-------7-------3-------3-------3-------2-----| 
|----0-------0-------0-------0-------4-------4-------2-------2---| 
|--------9---------------7---------------5-----------------------| 
|----------------5---------------------------------------0-------| 
|0-------------------------------3---------------2---------------|

|------0-------0-------0-------0-------0-------0-------0-------0-|
|--8-------8-------7-------7-------3-------3-------3-------3-----|
|----0-------0-------0-------0-------4-------4-------2-------2---|
|--------9---------------7---------------5---------------0-------|
|----------------5-----------------------------------------------|
|0-------------------------------3---------------2---------------|

|------0-------0-------0-------0-------0-------0-------0-------0-|
|--8-------8-------7-------7-------3-------3-------3-------2-----|
|----0-------0-------0-------0-------4-------4-------2-------2---|
|--------9---------------7---------------5-----------------------|
|----------------5---------------------------------------0-------|
|0-------------------------------3---------------2---------------|

|------0-------0-------0-------0-------0-------0-0-|
|--8-------8-------7-------7-------3-------3-----3-|
|----0-------0-------0-------0-------4-------4---2-|
|--------9---------------7---------------5-------0-|
|----------------5-------------------------------0-|
|0-------------------------------3---------------2-|

Bridge - And when the day is done... 
|------0-------------0---------0-------0---------0-------0-| 
|--1-------1-----3---------3-------3-----3---3-------3-----| 
|----0-------------0---------0-------0---------0-------0---| 
|--------2-------------------------------------------------| 
|------------3-2-----------------5---------3-------2-------| 
|0---------------------2-0---------------------------------|

|------0-------------0---------0-------0-0-|
|--1-------1-----3---------3-------3-----3-|
|----0-------------0---------0-------0---0-|
|--------2-------------------------------4-|
|0-----------3-2-----------------5-------3-|
|----------------------2-0---------------X-|

Chorus 3 - Telling you, who's side he's on... 
|------0-------0-------0-------0-------0-------0-------0-------0-| 
|--8-------8-------7-------7-------3-------3-------3-------2-----| 
|----0-------0-------0-------0-------4-------4-------2-------2---| 
|--------9---------------7---------------5-----------------------| 
|----------------5---------------------------------------0-------| 
|0-------------------------------3---------------2---------------|

|------0-------0-------0-------0-------0-------0-------0-------0-|
|--8-------8-------7-------7-------3-------3-------3-------3-----|
|----0-------0-------0-------0-------4-------4-------2-------2---|
|--------9---------------7---------------5---------------0-------|
|----------------5-----------------------------------------------|
|0-------------------------------3---------------2---------------|

|------0-------0-------0-------0-------0-------0-------0-------0-|
|--8-------8-------7-------7-------3-------3-------3-------2-----|
|----0-------0-------0-------0-------4-------4-------2-------2---|
|--------9---------------7---------------5-----------------------|
|----------------5---------------------------------------0-------|
|0-------------------------------3---------------2---------------|

|------0-------0-------0-------0-------0-------0-------0-------0-|
|--8-------8-------7-------7-------3-------3-------3-------3-----|
|----0-------0-------0-------0-------4-------4-------2-------2---|
|--------9---------------7---------------5---------------0-------|
|----------------5-----------------------------------------------|
|0-------------------------------3---------------2---------------|

|------0-------0-------0-------0-------0-------0-------0-------0-|
|--8-------8-------7-------7-------3-------3-------3-------2-----|
|----0-------0-------0-------0-------4-------4-------2-------2---|
|--------9---------------7---------------5-----------------------|
|----------------5---------------------------------------0-------|
|0-------------------------------3---------------2---------------|

|------0-------0-------0-------0-------0-------0-------0-------0-|
|--8-------8-------7-------7-------3-------3-------3-------3-----|
|----0-------0-------0-------0-------4-------4-------2-------2---|
|--------9---------------7---------------5---------------0-------|
|----------------5-----------------------------------------------|
|0-------------------------------3---------------2---------------|

|------0-------0-------0-------0-------0-------0-------0-------0-|
|--8-------8-------7-------7-------3-------3-------3-------2-----|
|----0-------0-------0-------0-------4-------4-------2-------2---|
|--------9---------------7---------------5-----------------------|
|----------------5---------------------------------------0-------|
|0-------------------------------3---------------2---------------|

|------0-------0-------0-------0-------0-------0-0-|
|--8-------8-------7-------7-------3-------3-----3-|
|----0-------0-------0-------0-------4-------4---2-|
|--------9---------------7---------------5-------0-|
|----------------5-------------------------------0-|
|0-------------------------------3---------------2-|
Tap to rate this tab
# A B C D E F G H I J K L M N O P Q R S T U V W X Y Z