Shocking Blue - Blossom Lady chords

Highlighted       Show chord diagrams
Intro:
    Dm                             X2  Gm
e|----------------------------------|--------------------------------------|
B|--6/8/6---5-----------------------|--11/13/12--10------------------------|
G|--7/9/7---5---7-5---7-7--5-5---7--|--12/14/12--10------------------------|
D|--------------7-5---7-7--5-5---7--|---------------12-10--12-12-10-10-12--|
A|----------------------------------|---------------12-10--12-12-10-10-12--|
E|----------------------------------|--------------------------------------|
                      A7
e|--------------------5-5-5-5-5-5---------|
B|--6/8/6---5---------5-5-5-5-5-5---------|
G|--7/9/7---5---7-5---6-6-6-6-6-6---------|
D|--------------7-5---5-5-5-5-5-5---------|
A|--------------------7-7-7-7-7-7---------|
E|--------------------5-5-5-5-5-5---------|

Dm          
 Once I had a boyfriend
C
 He was so tall and strong
Bb
 He knew what I needed
      A7
 When I was all alone

Dm
 Then he said to me
C
 I'll care for you day and night
Bb
 And never forsake you
           A7
 Yes I'll stay by your side

D
 Don't be afraid girl
Bm
 You're the one the one I love   X2


    D                            Bm
 He said: "'Cos you're my blossom lady
  G   C                  Dm                  
 Youuuuuuu're my blossom lady, 
C            Dm   C            Dm     A7
 my blossom lady,   my blossom lady.


Solo: D  Bm  X2   D  Bm 


  G   C                  Dm                  
 Youuuuuuu're my blossom lady, 
C            Dm   C            Dm    
 my blossom lady,   my blossom lady.


Dm           
 But I want you later
C
 I was as lonely as I was bure
Bb
 I saw my boyfriend
          A7  
 At some more door girls door
Dm
 And there was the third again
C
 I saw them they did broke away
Bb                       A7
 Then I remember what do you still say?


Dm                    Bm
 Don't be afraid girl, you're the one 
 The one I love    X2

    D                            Bm
 He said: "'Cos you're my blossom lady
  G   C                  Dm                  
 Youuuuuuu're my blossom lady, 
C            Dm   C            Dm    
 my blossom lady,   my blossom lady.


Intro and Fade Out
Tap to rate this tab
 
# A B C D E F G H I J K L M N O P Q R S T U V W X Y Z