Song name
# A B C D E F G H I J K L M N O P Q R S T U V W X Y Z

Shocking Blue - Send Me A Postcard tab

-------------------------------------------------------------------------------
                        THE SHOCKING BLUE     SEND ME A POSTCARD
-------------------------------------------------------------------------------
Tabbed by:wet mike

Tuning: E 
  4x main riff
e|---------------------------------------------------------------------------|
B|---------------------------------------------------------------------------|
G|---------------------------------------------------------------------------|
D|--4----4----4----7----6----4----4-----4---------2---3----------------------|
A|-------------------------------------------4-------------------------------|
E|---------------------------------------------------------------------------|

  Listen to the song for the Rhythm. 
e|---------------------------------------------------------------------------|
B|---------------------------------------------------------------------------|
G|---------------------------4--------------2-----------------4^----4-----2--|
D|--4------------2---2-------4--------------2-----2-----4--------------------|
A|--4------------2---2-------2--------------0-----2-----4--------------------|
E|--2------------0---0----------------------------0-----2--------------------|
Tap to rate this tab
 
# A B C D E F G H I J K L M N O P Q R S T U V W X Y Z