Song name
# A B C D E F G H I J K L M N O P Q R S T U V W X Y Z

Shocking Blue - Venus tab

Shocking Blue - Venus

I didn't see a tab for this solo yet and it's actually quite fun to play! :D
If you have any questions feel free to e-mail me: mensoter@gmail.com

Have fun!

e|----15----14----12---------------------------------------------|
B|--------------------12-----------------------------------------|
G|-/16----14----12-------11b12-9~------9~------------------------|
D|--------------------------------9h11---------------------------|
A|---------------------------------------------------------------|
E|---------------------------------------------------------------|

e|----15----14----12---------------------------------------------|
B|--------------------12------------------------------12---------|
G|-/16----14----12-------11b12-9------9~------9-11b12----12rb-9~-|
D|-------------------------------9-11----9-11-------------------|
A|---------------------------------------------------------------|
E|---------------------------------------------------------------|

e|---------------------------------------------------------------|
B|--------------12-----------------------------------------------|
G|------9-11b12----12rb-9~------9~------9------------------------|
D|-9-11--------------------9-11----9-11---11-9-------------------|
A|---------------------------------------------10\7~-----7~\0----|
E|---------------------------------------------------7-9---------|
Tap to rate this tab
# A B C D E F G H I J K L M N O P Q R S T U V W X Y Z