Song name
# A B C D E F G H I J K L M N O P Q R S T U V W X Y Z

Shocking Blue - Send Me A Postcard tab

E------------------------------------------------------------------|
B------------------------------------------------------------------|
G------------------------------------------------------------------|
D------------7-----------------------------------------------------|
A--9-9-9-----------11---9-9-9-9--------7-8-9-----------------------|
E---------------------------------9--------------------------------|

E------------------------------------------------------------------|
B------------------------------------------------------------------|
G------------------------------------------------------------------|
D------------7-----------------------------------------------------|
A--9-9-9-----------11---9-9-9-9------------------------------------|
E------------------------------------------------------------------|
Tap to rate this tab
# A B C D E F G H I J K L M N O P Q R S T U V W X Y Z