Song name
# A B C D E F G H I J K L M N O P Q R S T U V W X Y Z

Shocking Pinks - Second Hand Girl tab

Intro
e|----------------------------|
b|----------------------------|
g|----------------------------|
d|----------------------------|    x4
a|--8--8--8--6--4--6-6-^6/4---|
E|----------------------------|

than distortion kicks in play main riff

Main Riff 
e|--------------------------------------|
b|--------------------------------------|
g|--------------------------------------|
d|--------------------------------------|
a|--8--8--8--6--4--6-6-^6/4---8-8--8-6-4|
E|--------------------------2----2------|

quick side note:
the main riff sounds really good if you play it like so:

a|--8--8--8--6--4--6-6-^6-6-4---8-8--9-8-6-4
E|----------------------------2----2--------

http://www.flyingnun.co.nz/artists/shockingpinks/index.htm


good luck guys!
Tap to rate this tab
# A B C D E F G H I J K L M N O P Q R S T U V W X Y Z