Song name
# A B C D E F G H I J K L M N O P Q R S T U V W X Y Z

Shocking Pinks - Second Hand Girl tab

Shocking Pinks - Second Hand Girl
From the album "Shocking Pinks" (DFA Records 2007).

Tabbed by Isaac Murguia, February 2014.
Originally uploaded to Ultimate-Guitar.com
Contact: www.youtube.com/user/Goadiroth

1.2.3.4. = 1st repetition, 2nd repetition, etc.
b = bend note

CLEAN INTRO:                   [x3]
e|--------------------|--------------------|
B|--------------------|--------------------|
G|--------------------|--------------------|
D|-3------------------|-3------------------|
A|---6-64-4-4-666-4-4-|-4-6-64-4-4-666-4-4-|
E|--------------------|--------------------|

BAND ENTERS:
e|--------------------|---------------------|-------------------|---------------------|
B|--------------------|---------------------|-------------------|---------------------|
G|--------------------|---------------------|-------------------|---------------------|
D|-3------------------|---3-3------4-3------|-3-----------------|---3-3------4-3------|
A|---6-64-4-4-66b-4-4-|----------------6--4-|---6-64-4-6-6b-4-4-|----------------6--4-|
E|--------------------|-2-----2--2----------|-------------------|-2-----2--2----------|

VERSE A:              1.2.3.                4.
e|-------------------|---------------------|--------------|
B|-------------------|---------------------|--------------|
G|-------------------|---------------------|--------------|
D|-3-----------------|---3-3------4-3------|---3-3--------|
A|---6-64-4-6-6b-4-4-|----------------6--4-|--------------|
E|-------------------|-2-----2--2----------|-2-----2--2---|

CHORUS:
   THIS:      OR     THIS: (just play these notes randomly however you like)
e|-4----9---|    |------------------------|--------------------|
B|-4----9---|    |------------------------|-9--9----------9----|
G|-6----11--|    |-6-b--6---6--6----6---6-|-11---11-11-11---11-|
D|-6----11--| OR |-6-b----6------66---6---|--------------------|
A|-4----9---|    |------------------------|--------------------|
E|----------|    |------------------------|--------------------|

GUITAR SOLO:
e|---------------------|-------------------------|
B|---------------------|-------------------------|
G|---------------------|-------------------------|
D|-3--3/6\3/6--6/8-8-8-|-8-8/11--13-13/15--15-15-|
A|---------------------|-------------------------|
E|---------------------|-------------------------|

e|------------------------|
B|------------------------|
G|------------------------|
D|-16-16\15--8----6/8\6\3-|
A|------------------------|
E|------------------------|

VERSE B:
e|-------------------|---------------------|
B|-------------------|---------------------|
G|-------------------|---------------------|
D|-3-----------------|---3-3------4-3------|
A|---6-64-4-6-6b-4-4-|----------------6--4-|
E|-------------------|-2-----2--2----------| [x2]

Repeat CHORUS til the end!

Cheers!
Tap to rate this tab
# A B C D E F G H I J K L M N O P Q R S T U V W X Y Z