Song name
# A B C D E F G H I J K L M N O P Q R S T U V W X Y Z

Shocore - Dowat You Like tab

Song: Dowat You Like
Artist: Shocore
Album: Devil Rock Disco
As tabbed by Joe Muggah
joe_the_man3@hotmail.com

Intro
e---------------------------------------------------------
B---------------------------------------------------------
G--7-7-6-----7-7-6-----7-7-6------------------------------
D--6-6-6-----6-6-6-----6-6-6------------------------------
A--4-4-4-----4-4-4-----4-4-4------------------------------
E---------------------------------------------------------

Verse
e---------------------------------------------------------
B---------------------------------------------------------
G--6-6-4-6----6-6-4-6----6-6-4-6----11/13\11--9--9--------
D--6-6-4-6----6-6-4-6----6-6-4-6----11/13\11--9--9--------
A--4-4-2-4----4-4-2-4----4-4-2-4-----9/11\-9--7--7--------
E---------------------------------------------------------

Chorus 
e---------------------------------------------------------
B---------------------------------------------------------
G---------------------------------------------------------
D--2m-2m-2m-2m-2m-2m-2m-2m-2m-2m-2m-2m-2m-2m-2m-2m--------
A--2m-2m-2m-2m-2m-2m-2m-2m-2m-2m-2m-2m-2m-2m-2m-2m--------
E--0m-0m-0m-0m-0m-0m-0m-0m-0m-0m-0m-0m-0m-0m-0m-0m--------

(continued)
e---------------------------------------------------------
B---------------------------------------------------------
G--6-6-4-6----6-6-4-6-------------------------------------
D--6-6-4-6----6-6-4-6-------------------------------------
A--4-4-2-4----4-4-2-4-------------------------------------
E---------------------------------------------------------

Bridge
e---------------------------------------------------------
B---------------------------------------------------------
G---------------------------------------------------------
D--6m-6m-6m--5m-5m-5m--3m-3m-3m--5m-5m-5m--3m-3m-3m-------
A--6m-6m-6m--5m-5m-5m--3m-3m-3m--5m-5m-5m--3m-3m-3m-------
E--4m-4m-4m--3m-3m-3m--1m-1m-1m--3m-3m-3m--1m-1m-1m-------

(continued)
e---------------------------------------------------------
B---------------------------------------------------------
G--6-6-4-6----6-6-4-6-------------------------------------
D--6-6-4-6----6-6-4-6-------------------------------------
A--4-4-2-4----4-4-2-4-------------------------------------
E---------------------------------------------------------

Riff
e---------------------------------------------------------
B---------------------------------------------------------
G--6-6-4-6----6-6-4-6----6-6-4-6--------------------------
D--6-6-4-6----6-6-4-6----6-6-4-6--------------------------
A--4-4-2-4----4-4-2-4----4-4-2-4--------------------------
E---------------------------------------------------------


Intro
Verse
Chorus
Verse
Chorus
Bridge
Riff
Verse
Chorus
Bridge
Intro
Riff
Tap to rate this tab
# A B C D E F G H I J K L M N O P Q R S T U V W X Y Z