Song name
# A B C D E F G H I J K L M N O P Q R S T U V W X Y Z

Shoes And Socks Off - I Hope You Know What Youre Doing tab

Official website of "Shoes and Socks Off" - http://www.shoesandsocksoff.co.uk/

Signed to - Big Scary Monsters Record Company
Record Company Website - http://www.bsmrocks.com/

Link to official music video for this song
http://www.youtube.com/watch?v=A1BNPw6sMQo&feature=related

Title: I Hope You Know What You're Doing
Artist: Shoes and Socks Off
Words: Toby Hayes
Music: Toby Hayes
Tempo = 110
Steel Guitar/Clean Electric

Time signature is standard 4/4.
Tuning half a step down for all strings, and no capo is required.

Song structure is a little unconventional, and will take some work to memorise. Other than that this song is rather simple.

- Knowing how to fingerpick is invaluable, and this song essentially requires it.
This song would be great for anyone who wants to learn though, just use your thumb for 
the E & A
strings, your index finger for the G string, your middle finger for the B string, and
use your ring finger for the high E string.


Eb ||---------------------------------------------------|
Bb ||----------0-----------0-----------0-----------0----|
Gb ||-------2-----------2-----------2-----------2-------|
Db ||---------------------------------------------------|
Ab ||-2-----------2-----------2-----------2-------------|
Eb ||---------------------------------------------------|


----------------------------------------------------|
-----------0-----------0-----------0-----------0----|
--------2-----------2-----------2-----------2-------|
----------------------------------------------------|
--2-----------2-------------------------------------|
--------------------------0-----------2-------------|


----------------------------------------------------|
-----------0-----------0-----------0-----------0----|
--------2-----------2-----------2-----------2-------|
----------------------------------------------------|
----------------------------------------------------|
--3-----------3-----------3-----------3-------------|

                                                   x4
---------------------------------------------------||
-----------0-----------0-----------0-----------0---||
--------2-----------2-----------2-----------2------||
---------------------------------------------------||
---------------------------------------------------||
--3-----------3-----------3-----------3------------||


----------------------------------------------------|
-----------0-----------0-----------0-----------0----|
--------0-----------0-----------0-----------0-------|
----------------------------------------------------|
--7-----------6-----------5-----------4-------------|
----------------------------------------------------|


----------------------------------------------------|
-----------0-----------0-----------0-----------0----|
--------0-----------0-----------0-----------0-------|
----------------------------------------------------|
--3-----------3-----------3-----------3-------------|
----------------------------------------------------|


----------------------------------------------------|
-----------0-----------0-----------0-----------0----|
--------0-----------0-----------0-----------0-------|
----------------------------------------------------|
--3-----------3-----------3-----------3-------------|
----------------------------------------------------|


||---------------------------------------------------|
||----------0-----------0-----------0-----------0----|
||-------2-----------2-----------2-----------2-------|
||---------------------------------------------------|
||-2-----------2-----------2-----------2-------------|
||---------------------------------------------------|


----------------------------------------------------|
-----------0-----------0-----------0-----------0----|
--------2-----------2-----------2-----------2-------|
----------------------------------------------------|
--2-----------2-------------------------------------|
--------------------------0-----------2-------------|


----------------------------------------------------|
-----------0-----------0-----------0-----------0----|
--------2-----------2-----------2-----------2-------|
----------------------------------------------------|
----------------------------------------------------|
--3-----------3-----------3-----------3-------------|


---------------------------------------------------||
-----------0-----------0-----------0-----------0---||
--------2-----------2-----------2-----------2------||
---------------------------------------------------||
---------------------------------------------------||
--3-----------3-----------3-----------3------------||


----------------------------------------------------|
-----------7-----------7-----------7-----------7----|
--------0-----------0-----------0-----------0-------|
----------------------------------------------------|
----------------------------------------------------|
--8-----------8-----------8-----------8-------------|


----------------------------------------------------|
-----------7-----------7-----------7-----------7----|
--------0-----------0-----------0-----------0-------|
----------------------------------------------------|
----------------------------------------------------|
--8-----------8-----------8-----------8-------------|


----------------------------------------------------|
-----------0-----------0-----------0-----------0----|
--------5-----------5-----------5-----------5-------|
----------------------------------------------------|
----------------------------------------------------|
--5-----------5-----------5-----------5-------------|


----------------------------------------------------|
-----------0-----------0-----------0-----------0----|
--------5-----------5-----------5-----------5-------|
----------------------------------------------------|
----------------------------------------------------|
--5-----------5-----------5-----------5-------------|


----------------------------------------------------|
-----------8-----------8-----------8-----------8----|
--------8-----------8-----------8-----------8-------|
----------------------------------------------------|
----------------------------------------------------|
--8-----------8-----------8-----------8-------------|


----------------------------------------------------|
-----------8-----------8-----------8-----------8----|
--------8-----------8-----------8-----------8-------|
----------------------------------------------------|
----------------------------------------------------|
--8-----------8-----------8-----------8-------------|


----------------------------------------------------|
-----------0-----------0-----------0-----------0----|
--------0-----------0-----------0-----------0-------|
----------------------------------------------------|
----------------------------------------------------|
--0-----------0-----------0-----------0-------------|


----------------------------------------------------|
-----------0-----------0-----------0-----------0----|
--------0-----------0-----------0-----------0-------|
----------------------------------------------------|
----------------------------------------------------|
--0-----------0-----------0-----------0-------------|


----------------------------------------------------|
-----------7-----------7-----------7-----------7----|
--------0-----------0-----------0-----------0-------|
----------------------------------------------------|
----------------------------------------------------|
--8-----------8-----------8-----------8-------------|


----------------------------------------------------|
-----------7-----------7-----------7-----------7----|
--------0-----------0-----------0-----------0-------|
----------------------------------------------------|
----------------------------------------------------|
--8-----------8-----------8-----------8-------------|


----------------------------------------------------|
-----------0-----------0-----------0-----------0----|
--------5-----------5-----------5-----------5-------|
----------------------------------------------------|
----------------------------------------------------|
--5-----------5-----------5-----------5-------------|


----------------------------------------------------|
-----------0-----------0-----------0-----------0----|
--------5-----------5-----------5-----------5-------|
----------------------------------------------------|
----------------------------------------------------|
--5-----------5-----------5-----------5-------------|


----------------------------------------------------|
-----------4-----------4-----------4-----------4----|
--------3-----------3-----------3-----------3-------|
----------------------------------------------------|
--3-----------3-----------3-----------3-------------|
----------------------------------------------------|


----------------------------------------------------|
-----------4-----------4-----------4-----------4----|
--------3-----------3-----------3-----------3-------|
----------------------------------------------------|
--3-----------3-----------3-----------3-------------|
----------------------------------------------------|


----------------------------------------------------|
-----------3-----------3-----------3-----------3----|
--------3-----------3-----------3-----------3-------|
----------------------------------------------------|
----------------------------------------------------|
--3-----------3-----------3-----------3-------------|


----------------------------------------------------|
-----------3-----------3-----------3-----------3----|
--------2-----------2-----------2-----------2-------|
----------------------------------------------------|
----------------------------------------------------|
--2-----------2-----------2-----------2-------------|


----------------------------------------------------|
-----------8-----------8-----------8-----------8----|
--------8-----------8-----------8-----------8-------|
----------------------------------------------------|
----------------------------------------------------|
--8-----------8-----------8-----------8-------------|


----------------------------------------------------|
-----------7-----------7-----------7-----------7----|
--------7-----------7-----------7-----------7-------|
----------------------------------------------------|
--5-----------5-----------5-----------5-------------|
----------------------------------------------------|


----------------------------------------------------|
-----------3-----------3-----------3-----------3----|
--------3-----------3-----------3-----------3-------|
----------------------------------------------------|
----------------------------------------------------|
--3-----------3-----------3-----------3-------------|


----------------------------------------------------|
-----------3-----------3-----------3-----------3----|
--------2-----------2-----------2-----------2-------|
----------------------------------------------------|
----------------------------------------------------|
--2-----------2-----------2-----------2-------------|


----------------------------------------------------|
-----------8-----------8-----------8-----------8----|
--------8-----------8-----------8-----------8-------|
----------------------------------------------------|
----------------------------------------------------|
--8-----------8-----------8-----------8-------------|


----------------------------------------------------|
-----------7-----------7-----------7-----------7----|
--------7-----------7-----------7-----------7-------|
----------------------------------------------------|
--5-----------5-----------5-----------5-------------|
----------------------------------------------------|


----------------------------------------------------|
-----------7-----------7-----------7-----------7----|
--------7-----------7-----------7-----------7-------|
----------------------------------------------------|
--6-----------6-----------6-----------6-------------|
----------------------------------------------------|


----------------------------------------------------|
-----------0-----------0-----------0-----------0----|
--------0-----------0-----------0-----------0-------|
----------------------------------------------------|
--7-----------6-----------5-----------4-------------|
----------------------------------------------------|


----------------------------------------------------|
-----------0-----------0-----------0-----------0----|
--------0-----------0-----------0-----------0-------|
----------------------------------------------------|
--3-----------3-----------3-----------3-------------|
----------------------------------------------------|


----------------------------------------------------|
-----------0-----------0-----------0-----------0----|
--------0-----------0-----------0-----------0-------|
----------------------------------------------------|
--3-----------3-----------3-----------3-------------|
----------------------------------------------------|


||---------------------------------------------------|
||----------0-----------0-----------0-----------0----|
||-------2-----------2-----------2-----------2-------|
||---------------------------------------------------|
||-2-----------2-----------2-----------2-------------|
||---------------------------------------------------|


----------------------------------------------------|
-----------0-----------0-----------0-----------0----|
--------2-----------2-----------2-----------2-------|
----------------------------------------------------|
--2-----------2-------------------------------------|
--------------------------0-----------2-------------|


----------------------------------------------------|
-----------0-----------0-----------0-----------0----|
--------2-----------2-----------2-----------2-------|
----------------------------------------------------|
----------------------------------------------------|
--3-----------3-----------3-----------3-------------|

                                                   x4
---------------------------------------------------||
-----------0-----------0-----------0-----------0---||
--------2-----------2-----------2-----------2------||
---------------------------------------------------||
---------------------------------------------------||
--3-----------3-----------3-----------3------------||


----------------------------------------------------|
-----------7-----------7-----------7-----------7----|
--------0-----------0-----------0-----------0-------|
----------------------------------------------------|
----------------------------------------------------|
--8-----------8-----------8-----------8-------------|


----------------------------------------------------|
-----------7-----------7-----------7-----------7----|
--------0-----------0-----------0-----------0-------|
----------------------------------------------------|
----------------------------------------------------|
--8-----------8-----------8-----------8-------------|


----------------------------------------------------|
-----------0-----------0-----------0-----------0----|
--------5-----------5-----------5-----------5-------|
----------------------------------------------------|
----------------------------------------------------|
--5-----------5-----------5-----------5-------------|


----------------------------------------------------|
-----------0-----------0-----------0-----------0----|
--------5-----------5-----------5-----------5-------|
----------------------------------------------------|
----------------------------------------------------|
--5-----------5-----------5-----------5-------------|


----------------------------------------------------|
-----------7-----------7-----------7-----------7----|
--------7-----------7-----------7-----------7-------|
----------------------------------------------------|
--6-----------6-----------6-----------6-------------|
----------------------------------------------------|


----------------------------------------------------|
-----------7-----------7-----------7-----------7----|
--------7-----------7-----------7-----------7-------|
----------------------------------------------------|
--6-----------6-----------6-----------6-------------|
----------------------------------------------------|


----------------------------------------------------|
-----------0-----------0-----------0-----------0----|
--------0-----------0-----------0-----------0-------|
----------------------------------------------------|
----------------------------------------------------|
--0-----------0-----------0-----------0-------------|


----------------------------------------------------|
-----------0-----------0-----------0-----------0----|
--------0-----------0-----------0-----------0-------|
----------------------------------------------------|
----------------------------------------------------|
--0-----------0-----------0-----------0-------------|


----------------------------------------------------|
-----------7-----------7-----------7-----------7----|
--------0-----------0-----------0-----------0-------|
----------------------------------------------------|
----------------------------------------------------|
--8-----------8-----------8-----------8-------------|


----------------------------------------------------|
-----------7-----------7-----------7-----------7----|
--------0-----------0-----------0-----------0-------|
----------------------------------------------------|
----------------------------------------------------|
--8-----------8-----------8-----------8-------------|


----------------------------------------------------|
-----------0-----------0-----------0-----------0----|
--------5-----------5-----------5-----------5-------|
----------------------------------------------------|
----------------------------------------------------|
--5-----------5-----------5-----------5-------------|


----------------------------------------------------|
-----------0-----------0-----------0-----------0----|
--------5-----------5-----------5-----------5-------|
----------------------------------------------------|
----------------------------------------------------|
--5-----------5-----------5-----------5-------------|


----------------------------------------------------|
-----------4-----------4-----------4-----------4----|
--------3-----------3-----------3-----------3-------|
----------------------------------------------------|
--3-----------3-----------3-----------3-------------|
----------------------------------------------------|


----------------------------------------------------|
-----------4-----------4-----------4-----------4----|
--------3-----------3-----------3-----------3-------|
----------------------------------------------------|
--3-----------3-----------3-----------3-------------|
----------------------------------------------------|


----------------------------------------------------|
-----------3-----------3-----------3-----------3----|
--------3-----------3-----------3-----------3-------|
----------------------------------------------------|
----------------------------------------------------|
--3-----------3-----------3-----------3-------------|


----------------------------------------------------|
-----------3-----------3-----------3-----------3----|
--------2-----------2-----------2-----------2-------|
----------------------------------------------------|
----------------------------------------------------|
--2-----------2-----------2-----------2-------------|


----------------------------------------------------|
-----------8-----------8-----------8-----------8----|
--------8-----------8-----------8-----------8-------|
----------------------------------------------------|
----------------------------------------------------|
--8-----------8-----------8-----------8-------------|


----------------------------------------------------|
-----------7-----------7-----------7-----------7----|
--------7-----------7-----------7-----------7-------|
----------------------------------------------------|
--5-----------5-----------5-----------5-------------|
----------------------------------------------------|


----------------------------------------------------|
-----------3-----------3-----------3-----------3----|
--------3-----------3-----------3-----------3-------|
----------------------------------------------------|
----------------------------------------------------|
--3-----------3-----------3-----------3-------------|


----------------------------------------------------|
-----------3-----------3-----------3-----------3----|
--------2-----------2-----------2-----------2-------|
----------------------------------------------------|
----------------------------------------------------|
--2-----------2-----------2-----------2-------------|


----------------------------------------------------|
-----------8-----------8-----------8-----------8----|
--------8-----------8-----------8-----------8-------|
----------------------------------------------------|
----------------------------------------------------|
--8-----------8-----------8-----------8-------------|


----------------------------------------------------|
-----------7-----------7-----------7-----------7----|
--------7-----------7-----------7-----------7-------|
----------------------------------------------------|
--5-----------5-----------5-----------5-------------|
----------------------------------------------------|


----------------------------------------------------|
-----------7-----------7-----------7-----------7----|
--------7-----------7-----------7-----------7-------|
----------------------------------------------------|
--6-----------6-----------6-----------6-------------|
----------------------------------------------------|


----------------------------------------------------|
-----------0-----------0-----------0-----------0----|
--------0-----------0-----------0-----------0-------|
----------------------------------------------------|
--7-----------6-----------5-----------4-------------|
----------------------------------------------------|


----------------------------------------------------|
-----------0-----------0-----------0-----------0----|
--------0-----------0-----------0-----------0-------|
----------------------------------------------------|
--3-----------3-----------3-----------3-------------|
----------------------------------------------------|


----------------------------------------------------|
-----------0-----------0-----------0-----------0----|
--------5-----------5-----------5-----------5-------|
----------------------------------------------------|
----------------------------------------------------|
--5-----------5-----------5-----------5-------------|


----------------------------------------------------|
-----------0-----------0-----------0-----------0----|
--------0-----------0-----------0-----------0-------|
----------------------------------------------------|
----------------------------------------------------|
--0-----------0-----------0-----------0-------------|


----------------------------------------------------|
-----------0-----------0-----------0-----------0----|
--------0-----------0-----------0-----------0-------|
----------------------------------------------------|
----------------------------------------------------|
--0-----------0-----------0-----------0-------------|

Let the final open E note on the following line ring for a dotted minum (dotted 
half-note) and leave a one beat rest.

----------------------------------------------------|----------------|
-----------0-----------0-----------0-----------0----|----------------|
--------0-----------0-----------0-----------0-------|----------------|
----------------------------------------------------|----------------|
----------------------------------------------------|----------------|
--0-----------0-----------0-----------0-------------|--0-------------|


||---------------------------------------------------|
||----------0-----------0-----------0-----------0----|
||-------0-----------0-----------0-----------0-------|
||---------------------------------------------------|
||-7-----------6-----------5-----------4-------------|
||---------------------------------------------------|


----------------------------------------------------|
-----------0-----------0-----------0-----------0----|
--------0-----------0-----------0-----------0-------|
----------------------------------------------------|
--3-----------3-----------3-----------3-------------|
----------------------------------------------------|

                                                   x4
---------------------------------------------------||
-----------0-----------0-----------0-----------0---||
--------0-----------0-----------0-----------0------||
---------------------------------------------------||
--0-----------0-----------0-----------0------------||
---------------------------------------------------||


----------------------------------------------------|
-----------0-----------0-----------0-----------0----|
--------0-----------0-----------0-----------0-------|
----------------------------------------------------|
----------------------------------------------------|
--0-----------0-----------0-----------0-------------|


----------------------------------------------------|
-----------0-----------0-----------0-----------0----|
--------0-----------0-----------0-----------0-------|
----------------------------------------------------|
----------------------------------------------------|
--0-----------0-----------0-----------0-------------|

The following E, G & B notes until the song ends are natural harmonics.

----------------------------------------------------|
-----------12----------12----------12----------12---|
--------12----------12----------12----------12------|
----------------------------------------------------|
----------------------------------------------------|
--12----------12----------12----------12------------|

The tempo slows down at the end of this bar to end the song. Let the final notes ring.

-----------------------------------------------12---|-------||
-----------12----------12----------12-------12------|-------||
--------12----------12----------12-------12---------|-------||
----------------------------------------------------|-------||
----------------------------------------------------|-------||
--12----------12----------12----------12------------|-------||
Tap to rate this tab
 
# A B C D E F G H I J K L M N O P Q R S T U V W X Y Z