Song name
# A B C D E F G H I J K L M N O P Q R S T U V W X Y Z

Shoji Meguro - Sahasrara tab

Sahasrara

by Shoji Meguro
tabbed by Nyafall
h = hammer
p = pull off
b = bend

I was going to include the bass as well, but seeing as I don't have a good bass at the 
moment to correctly tab it out, I thought the two guitar parts would be satisfactory 
enough on their own. Enjoy.


Guitar 1
E|--------------------------------------|
B|--------5---9-------5---7-------5-----|
G|----6-----------6-----------6---------|
D|--------------------------------------|
A|--------------------------------------|
E|--------------------------------------| x4

E|--------------------------------------|
B|----5~--------------------------------|
G|--------------------------------------|
D|--------------------------------------|
A|--------------------------------------|
E|--------------------------------------|

--------------------------------------------

Guitar 1
E|--------------------------------------|
B|--------5---9-------5---7-------5-----|
G|----6-----------6-----------6---------|
D|--------------------------------------|
A|--------------------------------------|
E|--------------------------------------| x4

E|--------------------------------------|
B|----5~--------------------------------|
G|--------------------------------------|
D|--------------------------------------|
A|--------------------------------------|
E|--------------------------------------|

Guitar 2
E|--------------------------------------|
B|----7----------5-----------3----------|
G|--------------------------------------|
D|--------------------------------------|
A|--------------------------------------|
E|--------------------------------------| x4


E|--------------------------------------|
B|----5---------------------------------|
G|--------------------------------------|
D|--------------------------------------|
A|--------------------------------------|
E|--------------------------------------|

--------------------------------------------

Guitar 1
E|--------------------------------------|
B|---7--6--5--7----6--7--6--5--7--------|
G|--------------------------------------|
D|--------------------------------------|
A|--------------------------------------|
E|--------------------------------------|

E|--------------------------------------|
B|---5--4--3--5----4--5--4--3--5--------|
G|--------------------------------------|
D|--------------------------------------|
A|--------------------------------------|
E|--------------------------------------| x2

-----------------------------------------------------------------------------
SECOND HALF

Guitar 1
E|--------------------------------------|
B|--------5---9-------5---7-------5-----|
G|----6-----------6-----------6---------|
D|--------------------------------------|
A|--------------------------------------|
E|--------------------------------------| x4

E|--------------------------------------|
B|----5~--------------------------------|
G|--------------------------------------|
D|--------------------------------------|
A|--------------------------------------|
E|--------------------------------------|

--------------------------------------------

Guitar 1
E|--------------------------------------|
B|--------5---9-------5---7-------5-----|
G|----6-----------6-----------6---------|
D|--------------------------------------|
A|--------------------------------------|
E|--------------------------------------| x4

E|--------------------------------------|
B|----5~--------------------------------|
G|--------------------------------------|
D|--------------------------------------|
A|--------------------------------------|
E|--------------------------------------|

Guitar 2
E|--4-7-9~b~9-7-4-----------------------|
B|------------------9-12-9-7h9-5--------|
G|--------------------------------------|
D|--------------------------------------|
A|--------------------------------------|
E|--------------------------------------|


E|-2-4-7-9~b~9-7-4----------------------|
B|------------------5~------------------|
G|--------------------------------------|
D|--------------------------------------|
A|--------------------------------------|
E|--------------------------------------|

--------------------------------------------

Guitar 1
E|--------------------------------------|
B|---7--6--5--7----6--7--6--5--7--------|
G|--------------------------------------|
D|--------------------------------------|
A|--------------------------------------|
E|--------------------------------------|

E|--------------------------------------|
B|---5--4--3--5----4--5--4--3--5--------|
G|--------------------------------------|
D|--------------------------------------|
A|--------------------------------------|
E|--------------------------------------| x2

---------------------------------------------
Tap to rate this tab
 
# A B C D E F G H I J K L M N O P Q R S T U V W X Y Z