Song name
# A B C D E F G H I J K L M N O P Q R S T U V W X Y Z

Shoji Meguro - Unavoidable Battle tab

Artist: Persona 3 (Shoji Meguro)
Album: Persona 3 Original Soundtrack
Song: Unavoidable Battle, Disc 1, Track 10

Tabbed by: CurtR


Most of the credit must go to HumanLarva and vinnyfav as alot of the parts
are tabbed from their youtube videos, with small sections (where the video
got blurry) tabbed out by myself (can you guess which parts?).


This tab may be extremely wrong but as no actual tab exists at the current
date it is the most accurate "tab" uploaded of this song to date
(03/09/2011).


This song is more of a long solo, so you could just treat this tab as a
reference and solo around it (trust me alot of different ways of playing
work!). ALSO this song when played in game is looped several times over (if a
long battle is being played and this is the play music (rare)) most the time
2 times is satisfactory but you can loop this as many times as you want.


E Standard
E, A, D, G, B, E
Basic Distortion (the video uses heavy distortion and volume down low with
minor touches of Delay effects etc..)


Now the tab:

Intro/Intermission(s)/Outro (all power chords):

e|----------------------------------|
B|----------------------------------|
G|--------5-5---------------764-----|
D|6-6-6-6-5-5-4-5---6-6-6-6-764-4-4-|
A|6-6-6-6-3-3-4-5---6-6-6-6-542-4-4-|
E|4-4-4-4-----2-3---4-4-4-4-----2-2-|


|----------------------------------|
|----------------------------------|
|--------5-5-----------764---------|
|6-6-6-6-5-5-4-5---6-6-764-4-4-----|
|6-6-6-6-3-3-4-5---6-6-542-4-4-----|
|4-4-4-4-----2-3---4-4-----2-2-----|

Repeat Intro/Intermission(s)/Outro again



End Intro/Intermisson(s)/Outro:

|---------------------------------------------|
|---------------------------------------------|
|---------------------------------------------|
|6-6-6-6----6----6----6----6----6----6----667-|
|6-6-6-6----6----6----6----6----6----6----667-|
|4-4-4-4----4----4----4----4----4----4----445-|

Repeat End Intro/Intermission(s)/Outro again



Solo Part 1:

|-----------------------------------------------------------------------------|
|--------------------------------------------------------6^---6---------------|
|--------4-6^-4-6^-4-----------4-6^-4/------------4-6^-4----4---4-8-6---------|
|----4-6-------------------4-6----------------4-6---------------------6---6-8-|
|4-6-------------------4-6----------------4-6---------------------------4-6-8-|
|-------------------------------------------------------------------------4-6-|

Repeat Solo Part 1 again



Solo Part 2:

|-----------------------------|
|4-7-4------------------------|
|------7-4-------4-6^-4-6^-4--|
|----------6-4-6--------------|
|-----------------------------|
|-----------------------------|

|-----------------------------|
|4-7-4------------------------|
|------7-4-------4-6----------|
|----------6-4-6-----7~-------|
|-----------------------------|
|-----------------------------|

Repeat Solo Part 2 again


Thats pretty much it!


As you can see a pattern develops, for the actual song length it is played like:


Intro/Intermission(s)/Outro x2
End Intro/Intermission(s)/Outro x2
Solo Part 1 x2
Solo Part 2 x2
Intro/Intermission(s)/Outro x2
End Intro/Intermission(s)/Outro x2
Solo Part 1 x2
Solo Part 2 x2
Intro/Intermissions(s)/Outro x2


Of course feel free to repeat it again and again!


Improvisation Tip:
Also some people alter the 7~ in Solo Part 2 into a few strums of these
powerchords:
|7    |7
|5    |7
|5 or |5


CurtR
Tap to rate this tab
 
# A B C D E F G H I J K L M N O P Q R S T U V W X Y Z