Guitaretab - guitar tabs
Song name
# A B C D E F G H I J K L M N O P Q R S T U V W X Y Z

Shonen Knife - Its A New Find tab

Highlighted       Show chord diagrams
Itís a New Find

A
 
A                     E
Feel in your pockets for something fun
F#m D A
Wash your socks and turn them inside out
A E
Try to look hip in old ugly clothes
F#m D A
There will be something different in your life

Chorus

A E
It's a new find, It's a new find
F#m D
It's a new find, It's a new
A E
It's a new find, It's a new find
F#m D
It's a new find, It's a new
A
E
Let's all get up and dance to a song
F#m D A
It gets you feelin' very nice
A E
You can have a strange hair cut
F#m D A
There'll be something different in your life
[ Tab from: http://www.guitaretab.com/s/shonen-knife/189261.html ]
Chorus
|---------------------------------------------------------------------|
|-------------------------------------------------8-7-5---5-5---------|
|-------------------------------------------------------7-----7-5-6---|
|-------------------------------------------------------------------7-|
|-------------------------6-7-7-6-7-7-6-7-7-6-7-7---------------------|
|-4-5-5-4-5-5-4-5-5-4-5-5---------------------------------------------|

|----------------------------------------------7-9----10-10-9-7-9-----|
|-----------------------7-9---10-10-9-7-9---10-----10-------------10--|
|-----6---7-7-6---6---9-----9-----------------------------------------|
|-7-9---7-------9-----------------------------------------------------|
|---------------------------------------------------------------------|
|---------------------------------------------------------------------|

Chorus
C
#m F#m A E F#m D
I can't find any more but you can find a new way

Sache down the street in platform shoes

You can find some new scenery

Make up with your friend and try again

There'll be something different in your life

Chorus x2
A
G G# A
Related for Its A New Find tab