Song name
# A B C D E F G H I J K L M N O P Q R S T U V W X Y Z

Shonen Knife - Twist Barbie chords

Highlighted       Show chord diagrams
Twist Barbie 
by:Shonen Knife.

A D A D A D A D E
A D A D A D A D E Eb E A

D A D A
Blue eyes, blonde hair

D A D A
Tight body, long legs

Bm D
She's very smart

Bm D

She can dance well

Bm D E
Ooh...ahh...ahh
CHORUS

A
Bang, bang, bang, Twist Barbie
C
Bang, bang, bang, Twist Barbie
D
Bang, bang, bang, Twist Barbie
E
Bang, bang, bang, Twist Barbie
A
Bang, bang, bang, Twist Barbie
C
Bang, bang, bang, Twist Barbie
D
Bang, bang, bang, Twist Barbie
E A
Oh! Sexy girl!
A D A D A D A D E
A D A D A D A D E Eb E A

D A D A
Blue eyes, blonde hair

D A D A
Tight body, long legs

Bm D
She's glamorous

Bm D
She's welcomed by boys

Bm D E
Ooh...ahh...ahh
CHORUS
|----------------------------------------------|
|----------------------------------------------|
|-----------------------5-----------------7-9--|
|--6-7-7-6-7-7------5-7---7--6-7-7-6-7-7-------|
|---------------5-7----------------------------|
|----------------------------------------------|

|-------------------------------------------------|
|-------------------------------------------------|
|-----------------------5-----------------7-6-4---|
|--6-7-7-6-7-7------5-7---7--6-7-7-6-7-7--------7-|
|---------------5-7-------------------------------|
|-------------------------------------------------|
I wanna be Twist Barbie
I wanna be Twist Barbie
I wanna be Twist Barbie
Naritaina, naritaina, naritaina!
Tap to rate this tab
# A B C D E F G H I J K L M N O P Q R S T U V W X Y Z