Song name
# A B C D E F G H I J K L M N O P Q R S T U V W X Y Z

Shonen Knife - Ramones Forever tab

Intro/Solo/Chorus

E|--------------------------------------------------------------------------|
B|--------------------------------------------------------------------------|
G|-88888888----------88888888----------88888888----------8888------88888888-|
D|-88888888-66666666-88888888-88888888-88888888-66666666-8888-8888-88888888-|
A|-66666666-66666666-66666666-88888888-66666666-66666666-6666-8888-66666666-|
E|----------44444444----------66666666----------44444444------6666----------|

Verse

E|--------------------------------------|
B|--------------------------------------|
G|-88888888--------------------88888888-|
D|-88888888--66666666-88888888-88888888-|
A|-66666666--66666666-88888888-66666666-|
E|-----------44444444-66666666----------|

Pre-Chorus

E|-------------------------------------------------------|
B|-------------------------------------------------------|
G|-------------------88888888-88888888-------------------|
D|-66666666-66666666-88888888-88888888-66666666-66666666-|
A|-66666666-66666666-66666666-66666666-66666666-66666666-|
E|-44444444-44444444-------------------44444444-44444444-|

E|----------------------------|
B|----------------------------|
G|----------------------------|
D|-88888888-88888888-88888888-|
A|-88888888-88888888-88888888-|
E|-66666666-66666666-66666666-|


Bridge (I'll never forget)

E|-------------------------------------|
B|-------------------------------------|
G|-66666666-66666666-------------8---8-|
D|-66666666-66666666-88888888--8-8-8-8-|
A|-44444444-44444444-88888888--8-6-8-6-|
E|-------------------66666666--6---6---|

End Chorus

E|-----------------------------------| [x3]
B|-----------------------------------|
G|-10-10-10-10-10-10-10-10-----------|
D|-10-10-10-10-10-10-10-10--88888888-|
A|-8--8--8--8--8--8--8--8---88888888-|
E|--------------------------66666666-|

E|--------------------------------------------------|
B|--------------------------------------------------|
G|-10-10-10-10--------------10-10-10-10-10-10-10-10-|
D|-10-10-10-10-10-10-10-10--10-10-10-10-10-10-10-10-|
A|-8--8--8--8--10-10-10-10--8--8--8--8--8--8--8--8--|
E|-------------8--8--8--8---------------------------|


ORDER:

Intro/Solo/Chorus x2
Verse x4
Pre-Chorus x1
Intro/Solo/Chorus x2
Intro/Solo/Chorus x2
Verse x4
Pre-Chorus x1
Intro/Solo/Chorus x2
Bridge x2
Intro/Solo/Chorus x2
Intro/Solo/Chorus x2
End Chorus x2
Tap to rate this tab
# A B C D E F G H I J K L M N O P Q R S T U V W X Y Z