Song name
# A B C D E F G H I J K L M N O P Q R S T U V W X Y Z

Shonlock - Something In Your Eyes tab

|-------------------------------------|
|---------------------0---------------|
|--0------------2----2--------2-------|
|-4-4p2h4-0---0---------4---4---2-----|
|-----------2---------------------2---|
|-------------------------------------|


|-------------------------------------|
|---------------------0---------------|
|--0------------2----2--------2-------|
|-4-4p2h4-0---0---------4---4---2-----|
|-----------2-------------------------|
|-------------------------------------|


im pretty sure this is 100% accurate, since i figured out the piano part by ear and then 
transcribed it to guitar. i hope you like it! :)
Tap to rate this tab
 
# A B C D E F G H I J K L M N O P Q R S T U V W X Y Z