Song name
# A B C D E F G H I J K L M N O P Q R S T U V W X Y Z

Shook Ones - Equal Oppurtunity Insults tab

			     Equal Oppurtunity Insults - Shook Ones
----------------------------------------------------------------------------
Tabbed by: Alec McVey
Email: alecmcvey@yahoo.com

Tuning: Standard

Part A:
e|---------------------------------------------------------------------|
B|---------------------------------------------------------------------|
G|------44------2222-4444------4-666-----------------------------------|
D|-44-2-44-4-2~-2222-4444-44-2-4-666-77-66665555-----------------------|
A|-44-2-22-4-2~-0000-2222-44-2-2-444-77-66665555-----------------------|
E|-22-0----2-0~-----------22-0-------55-44443333-----------------------|

e|----------------------------------------------------------------------|
B|----------------------------------------------------------------------|
G|-----4--------222224444------44-6-------------------------------------|
D|-442-4-444-22-222224444-44-2-44-6-7~-66665555-------------------------|
A|-442-2-444-22-000002222-44-2-22-4-7~-66665555-------------------------|
E|-220---222-00-----------22-0------5~-44443333-------------------------|

Part B:
e|---------------------0~-----------------------------------------------|
B|---------------------0~-----------------------------------------------|
G|-44~-22~-------------0~-----------------------------------------------|
D|-44~-22~-66~-4-4-4-4-0~--------4~-------------------------------------|
A|-22~-00~-66~-4-4-4-4-0~--------4~-------------------------------------|
E|---------44~-2-2-2-2-0~--------2~-------------------------------------|

(Back to Part A)

Part C:
e|----------------------------------------------------------------------|
B|----------------------------------------------------------------------|
G|-44~-22~-------------44~-22~------------------------------------------|
D|-44~-22~-66~-44-444--44~-22~-66~-4-4-4-4-4-4-4-4----------------------|
A|-22~-00~-66~-44-444--22~-00~-66~-4-4-4-4-4-4-4-4----------------------|
E|---------44~-22-222----------44~-2-2-2-2-2-2-2-2----------------------|

Part D: (x4)
e|----------------------------------------------------------------------|
B|----------------------------------------------------------------------|
G|--------------------99-8/99-------------------------------------------|
D|-4-4-4-4-24-4-24-42-99-8/99---7-99------------------------------------|
A|-4-4-4-4-24-4-24-42-77-6/77-7-7-99------------------------------------|
E|-2-2-2-2-02-2-02-20-----------5-77------------------------------------|

Ending: (single notes) x4
e|----------------------------------------------------------------------|
B|----------------------------------------------------------------------|
G|----------------------------------------------------------------------|
D|----------------------------------------------------------------------|
A|---------77-677-------------------------------------------------------|
E|-22-0220~------7~-----------------------------------------------------|

End On:
e|----------------------------------------------------------------------|
B|----------------------------------------------------------------------|
G|----------------------------------------------------------------------|
D|-4--------------------------------------------------------------------|
A|-4--------------------------------------------------------------------|
E|-2--------------------------------------------------------------------|

Order of Song:
Part A
Part B
Part A
Part C
Part D (x4)
Ending (x4)
End

Please email me with any questions or suggestions: Alecmcvey@yahoo.com

| /  slide up
| \  slide down
| h  hammer-on
| p  pull-off
| ~  vibrato
| +  harmonic
| x  Mute note
Tap to rate this tab
 
# A B C D E F G H I J K L M N O P Q R S T U V W X Y Z