Song name
# A B C D E F G H I J K L M N O P Q R S T U V W X Y Z

Shoot The Girl First - A Tumor Called Marla tab

Key:*-palm mute
    p-pulloff
    h-hammeron
    s-slide
    ~-let ring


This is a link to a video tutorial, I suggest using it: http://j.gs/3787716/to-video-tutorial

Comment if there are mistakes.

0:00-0:13
This part is synth but here it is on guitar:
D|--------------------------------------------|
A|--------------------------------------------|
F|--------------------------------------------|
C|-1--0--3--4--1--0--3--4--6------------------|
G|-1--0--3--4--1--0--3--4--6------------------|
C|-1--0--3--4--1--0--3--4--6------------------|



0:14-0:40
Both Guitars:
D|------------------------------------------------|
A|------------------------------------------------|
F|------------------------------------------------|
C|------------------------------------------------|
G|-1-1111-1111-1-11-11-11--0-0000-0000-0-00-00-00-|    Some of these are palm 
C|-1-1111-1111-1-11-11-11--0-0000-0000-0-00-00-00-|x4 muted less then others.  
   * **** **** * ** ** **  * **** **** * ** ** **     Listen and adjust  
                                                       accordingly.

              


0:41-0:55
Both Guitars:
D|--------------------------------------------|
A|--------------------------------------------| 
F|--------------------------------------------| 
C|--------------------------------------------|  
G|--000-000---000-000-000--000-000--0-000-000-|
C|--000-000---000-000-000--000-000--0-000-000-|x2
    *** ***   *** *** ***  *** ***  * *** ***

0:55-1:20
Techno/French speaking man, no guitar.


1:21-1:34
Both Guitars:
D|--------------------------------------------|
A|--------------------------------------------|
F|--------------------------------------------|
C|-0-----8-----3-----10-----------------------|
G|-0-----8-----3-----10-----------------------|
C|-0-x8--8-x8--3-x8--10-x8--------------------|x2




1:34-1:47
Guitar 1:
D|--------------------------------------------------------|
A|--------------------------------------------------------|
F|--------------------------------------------------------|
C|------7p0-7p3------7p0-7p5-------3p0-3h5------5p0-5h7---|
G|-0000---------8888----------3333---------3333-----------|   
C|-0000---------8888----------3333---------3333-----------|   
   ****         ****          ****         ****               
Guitar 2:
D|------------------------------------------------------|
A|------------------------------------------------------|
F|------------------------------------------------------|
C|------------------------------------------------------|
G|-0000-8p0-8p5-8888-8p0-8p7-3333-5p0-5h7-3333-7p0-7h8--|
C|-0000---------8888---------3333---------3333----------|
   ****         ****         ****         ****




1:48-1:54
Guitar 1:
D|----------------------------------------------------|
A|----------------------------------------------------|
F|----------------------------------------------------|
C|-----------------------------------0-7-8-10-8-7-----|
G|----------------------------------------------------|
C|-0-0000000-0-0-00-00000-0000000---------------------|
   * ******* * * ** ***** *******

Guitar 2:
D|------------------------------------------------------|
A|------------------------------------------------------|
F|------------------------------------------------------|
C|------------------------------------------------------|
G|-----------------------------------5-8-10-12-10-8-----|
C|-0-0000000-0-0-00-00000-0000000-----------------------| 
   * ******* * * ** ***** *******




1:55-2:00
Guitar 1:
D|----------------------------------------------------|
A|----------------------------------------------------|
F|----------------------------------------------------|
C|----------------------------------5-5-5-3-3-3-------|
G|----------------------------------------------------|
C|-0-0000000-0-0-00-00000-0000000---------------------|
   * ******* * * ** ***** *******
Guitar 2:
D|------------------------------------------------------|
A|------------------------------------------------------|
F|------------------------------------------------------|
C|----------------------------------8-8-8-7-7-7---------|
G|------------------------------------------------------|
C|-0-0000000-0-0-00-00000-0000000-----------------------| 
   * ******* * * ** ***** *******



2:01-2:13
Both Guitars:
D|--------------------------------------------|
A|--------------------------------------------|
F|--------------------------------------------|
C|--------------------------------1-1-1-1-1---|
G|--------------------------------1-1-1-1-1---|
C|-0-0000000-0-000000000-0000000--1-1-1-1-1---|x2
   * ******* * ********* *******



2:14-2:42
Guitar 1:
D|-------------------------------------------------|
A|-------------------------------------------------|
F|-------------------------------------------------|   <---|   
C|-15p12h14p12h15p12h17p12h15p12h14p12h15p12h14p12-|       |  
G|-------------------------------------------------|       |  
C|-------------------------------------------------|       |
                                                           |
                                                           |
D|------------------------------------------------|        |
A|------------------------------------------------|        |
F|------------------------------------------------|        |
C|-15p8h14p8h15p8h17p8h15p8h14p8h15p8h14p8--------|    <---| Guitar 1 repeats 
G|------------------------------------------------|        | entire part 4 
C|------------------------------------------------|x2      |   times.
                                                           |
D|-------------------------------------------------|       |
A|-------------------------------------------------|       |
F|-------------------------------------------------|       |
C|-15p10h14p10h15p10h17p10h15p10h14p10h15p10h14p10-|   <---|
G|-------------------------------------------------|       | 
C|-------------------------------------------------|       |


2:21-2:42
Guitar 2:
D|-------------------------------------------------|
A|-------------------------------------------------|
F|-------------------------------------------------|  
C|-19p12h17p12h19p12h20p12h19p12h17p12h19p12h17p12-|     
G|-------------------------------------------------|     
C|-------------------------------------------------|

D|------------------------------------------------|    This tapping comes in 
A|------------------------------------------------|    after guitar 1 
F|------------------------------------------------|   finishes one of its 
C|-19p8h17p8h19p8h20p8h19p8h17p8h19p8h17p8--------|   tapping parts.  
G|------------------------------------------------|       Explanation in
C|------------------------------------------------|x2     tutorial.

D|-------------------------------------------------|        
A|-------------------------------------------------|       
F|-------------------------------------------------|       
C|-19p10h17p10h19p10h20p10h19p10h17p10h19p10h17p10-|   
G|-------------------------------------------------|       
C|-------------------------------------------------| 




2:42-3:08
Guitar 1:
D|--------------------------------------------------------|
A|--------------------------------------------------------|
F|--------------------------------------------------------|
C|------7p0-7p3------7p0-7p5-------3p0-3h5------5p0-5h7---|
G|-0000---------8888----------3333---------3333-----------|   
C|-0000---------8888----------3333---------3333-----------|x4  
   ****         ****          ****         ****              
Guitar 2:
D|------------------------------------------------------|
A|------------------------------------------------------|
F|------------------------------------------------------|
C|------------------------------------------------------|
G|-0000-8p0-8p5-8888-8p0-8p7-3333-5p0-5h7-3333-7p0-7h8--|
C|-0000---------8888---------3333---------3333----------|x4
   ****         ****         ****         ****


3:08-3:21
Guitar 1:
D|--------------------------------------------|
A|--------------------------------------------|
F|--------------------------------------------|
C|--------------------------------------------|
G|--------8-8s7------------------8-8s7-7~~~---|
C|-0-0000-------8~~~------3-3333--------------|x2
   * ****                 * ****
Guitar 2: 
D|--------------------------------------------|
A|--------------------------------------------|
F|--------------------------------------------|
C|--------7-7s5s3~~~-------------7-7s5-5~~~---|
G|--------------------------------------------|
C|-0-0000-----------------3-3333--------------|x2
   * ****                 * ****

3:21-3:24
Both Guitars:
D|--------------------------------------------|
A|--------------------------------------------|
F|--------------------------------------------|
C|-0~~~~~-------------------------------------|
G|-0~~~~~-------------------------------------|
C|-0~~~~~-------------------------------------|

3:25-3:51
Pretty piano thing, no guitar.


3:52-4:04
Guitar 1:
D|--------------------------------------------|
A|--------------------------------------------|
F|--------------------------------------------|
C|-------------------------------0-7-8-10-8-7-|
G|--------------------------------------------|
C|-0-0000000-0-000000000-0000000--------------|x2
   * ******* * ********* *******

Guitar 2:
D|----------------------------------------------|
A|----------------------------------------------|
F|----------------------------------------------|
C|----------------------------------------------|
G|-------------------------------5-8-10-12-10-8-|
C|-0-0000000-0-000000000-0000000----------------|x2
   * ******* * ********* *******



4:05-4:18
D|--------------------------------------------|
A|--------------------------------------------|
F|--------------------------------------------|
C|--------------------------------1-1-1-1-1---|
G|--------------------------------1-1-1-1-1---|
C|-0-0000000-0-000000000-0000000--1-1-1-1-1---|x2
   * ******* * ********* *******

4:18-4-21
Both Guitars:
D|--------------------------------------------|
A|--------------------------------------------|
F|--------------------------------------------|
C|--------------------------------------------|
G|--------------------------------------------|
C|-0-0000000----------------------------------|
   * *******

End of the song!
\m/ Rock On!
Tap to rate this tab
# A B C D E F G H I J K L M N O P Q R S T U V W X Y Z