Shooter Jennings - The Breaking Point tab

The Breaking Point
Shooter Jennings and Hierophant
from: Black Ribbons


Tuning: Standard tuning


e|---0-0---0-0----1-1-0-0-2-2-0-0-1-1-0-0-2-2-0-0--3-3-1-1-0-0-2-2-0--|
B|---1-1---1-1----1-1-0-0-3-3-1-1-1-1-0-0-3-3-1-1--3-3-1-1-0-0-3-3-1--|
G|---0-0---0-0----2-2-0-0-2-2-0-0-2-2-0-0-2-2-0-0--0-0-2-2-0-0-2-2-0--|
D|---2-2---2-2----3-3-2-2-0-0-2-2-3-3-2-2-0-0-2-2--0-0-3-3-2-2-0-0-2--|
A|---3-3---3-3----3-3-2-2-----3-3-3-3-2-2-----3-3--2-2-3-3-2-2-----3--|
E|-------------------------------------------------3-3----------------|

with fuzz (main dirty riff 1, and Queen of Spades part)
e|---------------------------------------------|
B|---------------------------------------------|
G|---------------------------------------------|  x2
D|-----8b-8-6h8-6h8-6------------6---8---------|
A|---8---------------h8-8-8-8--8---8---8-6-8---|
E|---------------------------------------------|

Main dirty riff 2
e|----------------------------------|
B|----------------------------------|
G|-----10b-10-8h10-8h10-8-----10b---|
D|--10-------------------h10--------|
A|----------------------------------|
E|----------------------------------|

e|----------------------------------------------|
B|----------------------------------------------|
G|-----10b-10-8h10-8h10-8---------8----10-------|
D|--10-------------------h10---10---10----8-10--|
A|----------------------------------------------|
E|----------------------------------------------|

solo not figured out...


*sweet_inc*

Tap to rate this tab
 
# A B C D E F G H I J K L M N O P Q R S T U V W X Y Z